rock
 
|tablatures   |lyrics   |discussion forums   |more tabs @ XGuitar.com

Iced Earth tabs

Diary bass tab

ICED EARTH
Diary
from Burnt Offerings by Schaffer, Shawner, Abell, Barlow
Transcripted by Stefano Lopez (toscanino@inwind.it)

FIND EVERY ICED EARTH SONG AND
THE MOST UPDATED VERSION OF THIS SONG AT:

                          The Frozen Palace
                  http://abysslord.com/icedearth/

PLEASE DO NOT COPY THIS TAB TO ANOTHER SITE 
WITHOUT AUTHORS' PERMISSION.  THANK YOU.

Tune down  step

Intro x6  -Riff 1-
Gb|-----------------------||
Db|-----------------------||
Ab|-----------------------||
Eb|-0-0---0-0---0-0---0-0-||

Riff 2 x2
Gb|-------------------------------------||
Db|-------------------------------------||
Ab|-------------------------------------||
Eb|-0--0-0--0-0--0-3---2--2-2--2-2--2-3-||

Verse 1 x4
Gb|-----------------------||
Db|-----------------------||
Ab|-----------------------||
Eb|-0-0---0-0---0-0---0-0-||

Chorus x2
Gb|-------------------------------------||
Db|-------------------------------------||
Ab|-------------------------------------||
Eb|-0--0-0--0-0--0-3---2--2-2--2-2--2-3-||

Pre-Riff 2                                             |after 2nd time
Gb|----------------------------------------------------|------||
Db|----------------------------------------------------|------||
Ab|----------------------------------------------------|------||
Eb|-0-r-------0-r-----3-3-3-0--r-----5--5-5-5-3--3-3-3-|--0-r-||

Gb|---------||
Db|---------||
Ab|---------||
Eb|-1--0--1-||

Riff 2             X3|
Gb|------------------|----------||X2
Db|------------------|----------||
Ab|-------------5578-|----------||
Eb|-0-0-0-0-0-0------|--1--0--1-||

Verse 2            X3|
Gb|------------------|----------||X4
Db|------------------|----------||
Ab|-------------5578-|----------||
Eb|-0-0-0-0-0-0------|--1--0--1-||

Gb|------------------------------------------------------------------------||
Db|------------------------------------------------------------------------||
Ab|-3-3-3-3-3-2-2-2-----------------------------------3-3-3-3-3-2-2-2------||
Eb|-----------------3-2-0-0-000-0-0-0-0-0-0-0-0-0-0-0------------------3-2-||

Verse 3            X3|
Gb|------------------|----------||X4
Db|------------------|----------||
Ab|-------------5578-|----------||
Eb|-0-0-0-0-0-0------|--1--0--1-||
Gb|------------------------------------------------------------------------||
Db|------------------------------------------------------------------------||
Ab|-3-3-3-3-3-2-2-2-----------------------------------3-3-3-3-3-2-2-2------||
Eb|-----------------3-2-0-0-000-0-0-0-0-0-0-0-0-0-0-0------------------3-2-||

Chorus                                              X3|
Gb|---------------------------------------------------|-------------------||
Db|---------------------------------------------------|-------------------||
Ab|-7--5--7--5---8--8---------------------------------|-7--5--7--5---8--8-||
Eb|-------------------0-000-0-000-000-000-000-000-000-|-------------------||

Riff 2 x2
Gb|------------------------------------||
Db|------------------------------------||
Ab|------------------------------------||
Eb|-0--0-0--0-0--0-3--2--2-2--2-2--2-3-||

Riff 2a x2
Gb|----------------------------------||
Db|----------------------------------||
Ab|----------------------------------||
Eb|-0--0-0--0-0---3--2--2-2--2-2---3-||

Riff 3 x2
Gb|---------------------------------------------|---------------------|
Db|-------------------------------------------5-|---------------------|
Ab|---------------------------------------3-5---|---------------------|
Eb|-0-0-0-0-0-0-0-0-0-0-0-0-0-0-0-0-0-0-0-------|-0-0-0-0-0-0-0-0-0-0-|
  |
Gb|------------------------||
Db|------------------------||
Ab|-5--3-2-222-------------||
Eb|------------5-555-3-333-||

Riff 4        X3|             |           X3|
Gb|-------------|-------------|-------------|-------------||X2
Db|-------------|-------------|-------------|-------------||
Ab|-3-----3-----|-3-300-3-----|-2-----2-----|-2-200-2-----||
Eb|---1-1---1-1-|---------1-1-|---0-0---0-0-|---------0-0-||

Solo                                                X3|
Gb|---------------------------------------------------|-----------------------||
Db|---------------------------------------------------|-----------------------||
Ab|-7--5--7--5---8--8---------------------------------|-7--5--7--5---8--8-----||
Eb|-------------------0-000-0-000-000-000-000-000-000-|-------------------0-r-||

Interlude
Gb|----------9-------------9----------------9-----------9-------||
Db|--------9---9---------9----9-----------9---9-------9----9----||
Ab|-7--7-7--------5--5-5--------5--8--8-8--------7--7--------7--||
Eb|-------------------------------------------------------------||

Verse 5 x4
Gb|----------9-------------9----------------9-----------9-------||
Db|--------9---9---------9----9-----------9---9-------9----9----||
Ab|-7--7-7--------5--5-5--------5--8--8-8--------7--7--------7--||
Eb|-------------------------------------------------------------||

Verse 6
Gb|---------------------------------|--------------------------------||
Db|---------------------------------|--------------------------------||
Ab|---------------------------------|--------------------------------||   
Eb|-0-------0-------0-------0-------|-0-------0-------0-----0-0-r----||
"Now I'm the one crucified......"

Gb|---------||
Db|---------||
Ab|---------||
Eb|-1--0--1-||

Riff 2             X3|
Gb|------------------|----------||X2
Db|------------------|----------||
Ab|-------------5578-|----------||
Eb|-0-0-0-0-0-0------|--1--0--1-||

Verse 7            X3|
Gb|------------------|----------||X4
Db|------------------|----------||
Ab|-------------5578-|----------||
Eb|-0-0-0-0-0-0------|--1--0--1-||

Gb|------------------------------------------------------------------------||
Db|------------------------------------------------------------------------||
Ab|-3-3-3-3-3-2-2-2-----------------------------------3-3-3-3-3-2-2-2------||
Eb|-----------------3-2-0-0-000-0-0-0-0-0-0-0-0-0-0-0------------------3-2-||

Chorus                                              X3|ENDING
Gb|---------------------------------------------------|--------------------||
Db|---------------------------------------------------|--------------------||
Ab|-7--5--7--5---8--8---------------------------------|-7--5--7--5---8--8--||
Eb|-------------------0-000-0-000-000-000-000-000-000-|--------------------||



  development and support by
dmitry ivanov