rock
 
|tablatures   |lyrics   |discussion forums   |more tabs @ XGuitar.com

Iced Earth tabs

Depths of Hell bass tab

ICED EARTH
Depths Of Hell
from The Dark Saga by Schaffer, Schawver, Simmons
Transcripted by Stefano Lopez (toscanino@inwind.it)

FIND EVERY ICED EARTH SONG AND
THE MOST UPDATED VERSION OF THIS SONG AT:

                          The Frozen Palace
                  http://abysslord.com/icedearth/

PLEASE DO NOT COPY THIS TAB TO ANOTHER SITE 
WITHOUT AUTHORS' PERMISSION.  THANK YOU.

Tune down  step

Intro x4 
G|-------------------------------------||
D|-------------------------------------||
A|-------------------------------------||
E|-0-0-0--0-0-0--0-0-0--0-0-0--0-0-0-0-||

Pre-verse x2 
G|-------------------------------------||
D|-------------------------------------||
A|-------------------------------------||
E|-1-1-1--0-0-0--0-0-0--0-0-0--0-0-0-0-||

Verse 1 x4 
G|-------------------------------------||
D|-------------------------------------||
A|-------------------------------------||
E|-0-0-0--0-0-0--0-0-0--0-0-0--0-0-0-0-||

Pre-verse 2 x2 
G|-------------------------------------||
D|-------------------------------------||
A|-------------------------------------||
E|-1-1-1--0-0-0--0-0-0--0-0-0--0-0-0-0-||

Verse 2 x4 
G|-------------------------------------||
D|-------------------------------------||
A|-------------------------------------||
E|-0-0-0--0-0-0--0-0-0--0-0-0--0-0-0-0-||

Pre-verse 3 x2 
G|-------------------------------------||
D|-------------------------------------||
A|-------------------------------------||
E|-1-1-1--0-0-0--0-0-0--0-0-0--0-0-0-0-||

Verse 3                      X2|
G|-----------------------------|----------------------------||
D|-----------------------------|----------------------------||
A|-----------------------------|----------------------------||
E|-0-00-0-00-0-00-0-00-0-0-0-0-|-1-11-1-11-1-11-1-11--3--3--||

Chorus
G|-----------------------------|-------------------|
D|-----------------------------|-------------------|
A|-----------------------------|-------------------|
E|-0-00-0-00-0-00-0-00-0-0-0-0-|--3--3--3--3--0--1-|
 |
G|-----------------------------|-------------------------------------------------------||
D|-----------------------------|-------------------------------------------------------||
A|-------------------------3-2-|-------------------------------------------------------||
E|-0-0-0-0-0-0-0-0-0-0-0-0-----|-3-3-3-3-0-1-r---3-3-3-3-0-0-r---3-3-3-3-0-1-r----3--1-||





Solo                         X2|
G|-----------------------------|-----------------------------|
D|-----------------------------|-----------------------------|
A|-------------------------3-2-|-------------------------2-3-|
E|-0-0-0-0-0-0-0-0-0-0-0-0-----|-1-1-1-1-1-1-1-1-1-1-1-1-----|
 |
G|-----------------------------|-------------------------------------------------------||
D|-----------------------------|-------------------------------------------------------||
A|-------------------------3-2-|-------------------------------------------------------||
E|-0-0-0-0-0-0-0-0-0-0-0-0-----|-3-3-3-3-0-1-r---3-3-3-3-0-0-r---3-3-3-3-0-1-r----3--1-||

Verse 4 x4 
G|-------------------------------------||
D|-------------------------------------||
A|-------------------------------------||
E|-0-0-0--0-0-0--0-0-0--0-0-0--0-0-0-0-||

Pre-verse 2 x2 
G|-------------------------------------||
D|-------------------------------------||
A|-------------------------------------||
E|-1-1-1--0-0-0--0-0-0--0-0-0--0-0-0-0-||

Verse 5 x4 
G|-------------------------------------||
D|-------------------------------------||
A|-------------------------------------||
E|-0-0-0--0-0-0--0-0-0--0-0-0--0-0-0-0-||

Pre-verse 3 x2 
G|-------------------------------------||
D|-------------------------------------||
A|-------------------------------------||
E|-1-1-1--0-0-0--0-0-0--0-0-0--0-0-0-0-||

Verse 6                      X2|
G|-----------------------------|----------------------------||
D|-----------------------------|----------------------------||
A|-----------------------------|----------------------------||
E|-0-00-0-00-0-00-0-00-0-0-0-0-|-1-11-1-11-1-11-1-11--3--3--||

Chorus
G|-----------------------------|-------------------|
D|-----------------------------|-------------------|
A|-----------------------------|-------------------|
E|-0-00-0-00-0-00-0-00-0-0-0-0-|--3--3--3--3--0--1-|
 |
G|-----------------------------|-------------------------------------------------------||
D|-----------------------------|-------------------------------------------------------||
A|-------------------------3-2-|-------------------------------------------------------||
E|-0-0-0-0-0-0-0-0-0-0-0-0-----|-3-3-3-3-0-1-r---3-3-3-3-0-0-r---3-3-3-3-0-1-r----3--1-||

G|----||
D|----||
A|----||
E|-0--||
  development and support by
dmitry ivanov