rock
 
|tablatures   |lyrics   |discussion forums   |more tabs @ XGuitar.com

Iced Earth tabs

Declaration Day bass tab

DECLERATION DAY
By the Mighty Iced Earth
Music & Lyrics by Jon Schaffer

For this Song you can either choose to tune down half a step or play it as shown below.
 This a pretty easy song but Amazing none the less… enjoy

Intro
G:----------------------------------------------------------------------------------
D:----------------------------------------------------------------------------------
A:----------------------------------------------------------------------------------
E:---777-7---777-7---777-7---777-7---777-7---777-7---777-7---777-7---777-7---777-7--

G:------------------------------------------------------
D:------------------------------------------------------
A:------------------------------------------------------                x 2
E:- 777-7---777-7--777-7---777-7---777-7---777-7--------

Verse= As intro

Chorus
G:------------------------------------------------------------------/
D:------------------------------------------------------------------/
A:---6--6666-4-2-4----4-6------4--6-----6--6666-4-2-4--4-6-7--7-9-6-/
E:----------------------------7--7----------------------------------/

Verse
Chorus x2

Solo 1
G:------------------------------------------------------------------------------------
D:------------------------------------------------------------------------------------
A:6-6666,6666,6666,6666,6666,6666,6666,6666-------------------------------------------
E:------------------------------------------7-7777,7777,7777,7777,7777,7777,7777,7777-

G:----------------------------------------------------------------
D:----------------------------------------------------------------
A:6-6666,6666,6666,6666,6666,6666,6666,6666-4-4444,4444,4444,4444-
E:----------------------------------------------------------------

G:-------------------------------------------/
D:-------------------------------------------/
A:-------------------------------------------/          x2
E:-7-7777,7777,7777,7777,----------------------/

Solo 2
G:-----------------------------------------------------------------------------------
D:-----------------------------------------------------------------------------------
A:-666-6--666-6--666-6--666-6--66--------------------------------666-6--666-6--666-6-
E:----------------------------------7-7--777-7-779-9-999-9--99-----------------------

G:-------------------------------------------------/
D:-------------------------------------------------/
A:-666-6--669-9--999-9-9911-11--11,11,11-11-11,11--/                   x2
E:-------------------------------------------------/

Verse
Chorus x4

Outro
The end of the last round of the chorus is slowed down so play:
G:-------------------------------------------------------------------------------------------------
D:-------------------------------------------------------------------------------------------------
A:--4----6----7-----7---9---------6-----------------6----------------------------------------------
E:-------------------------------------------7---7-------------------------------------------------
  development and support by
dmitry ivanov