rock
 
|tablatures   |lyrics   |discussion forums   |more tabs @ XGuitar.com

Iced Earth tabs

Dante's Inferno bass tab

ICED EARTH
Dante's Inferno
from Burnt Offerings & Days of Purgatory by Schaffer
Transcripted by Stefano Lopez (toscanino@inwind.it)

FIND EVERY ICED EARTH SONG AND
THE MOST UPDATED VERSION OF THIS SONG AT:

                          The Frozen Palace
                  http://abysslord.com/icedearth/

PLEASE DO NOT COPY THIS TAB TO ANOTHER SITE 
WITHOUT AUTHORS' PERMISSION.  THANK YOU.

Tune  step down
                                                         
Intro Arp x2
G|--------------------------------------------------------||
D|--------------------------------------------------------||
A|--7-r----------------------7-6-r------------------------||
E|--------------------------------------------------------||

Verse 1 x4
G|--------------------------------------------------------||
D|--------------------------------------------------------||
A|--7-r----------------------7-6-r------------------------||
E|--0-r---------------------------------------------------||

Verse 2 x4
G|--------------------------------------------------------||
D|--------------------------------------------------------||
A|--5-r------------------------3-r---------------------3--||
E|--------------------------------------------------------||

Intro Arp x4
G|--------------------------------------------------------||
D|--------------------------------------------------------||
A|--7-r----------------------7-6--------------------------||
E|--0-r---------------------------------------------------||
 
Verse 3 x4                |play at the end of 4th time
G|------------------------|-----||
D|------------------------|-----||
A|-7---7-7---7-6---6-6-/\-|-----||
E|-0---0-0---0------------|--0--||

G|------------------||
D|------------------||
A|-5-22-5------33-0-||
E|--------1--1------||
                                                                      
Riff 1
G|-------------------------------------------------------------------|X2
D|-------------------------------------------------------------------|
A|-5h7-------------5-22-5------33-0--5h7-----------------------------|
E|-----0-000-0-000--------1--1-----------0-000-0-000-0-000-0-000-000-|
 |	
G|---------------------||X2
D|---------------------||
A|---------------------||
E|-333-3--3---333-3--3-||

Verse 4 
G|-------------------------------------------------------------------|X4
D|-------------------------------------------------------------------|
A|-5h7-------------5-22-5------33-0--5h7-----------------------------|
E|-----0-000-0-000--------1--1-----------0-000-0-000-0-000-0-000-000-|
 |
G|---------------------||X2
D|---------------------||
A|---------------------||
E|-333-3--3---333-3--3-||

Verse 5
G|-------------------------------------------------------------------|X4
D|-------------------------------------------------------------------|
A|-5h7-------------5-22-5------33-0--5h7-----------------------------|
E|-----0-000-0-000--------1--1-----------0-000-0-000-0-000-0-000-000-|
 |
G|---------------------||X2
D|---------------------||
A|---------------------||
E|-333-3--3---333-3--3-||

Lead 1 x4
G|---------------------------------------------||
D|---------------------------------------------||
A|-----2-2-----5-2-2-2-0-----3-3-----5---5---5-||
E|-0-------1-0-----------1-------1-0---1---1---||

G|--------------------||
D|--------------------||
A|-5-22-5--------33-0-||
E|---------1---1------||

Verse 6
G|-------------------------------------------------------------------|X4
D|-------------------------------------------------------------------|
A|-5h7-----------------------------5h7--------------5-22-5------33-0-|
E|-----0-000-0-000-0-000-0-000-000-----0-000-0-000---------1--1------|
 |
G|---------------------||X2
D|---------------------||
A|---------------------||
E|-333-3--3---333-3--3-||

Lead 2 x4
G|---------------------------------------------||
D|---------------------------------------------||
A|-----2-2-----5-2-2-2-0-----3-3-----5---5---5-||
E|-0-------1-0-----------1-------1-0---1---1---||

Lead 3 x4
G|------------------------------------------------------------------||
D|------------------------------------------------------------------||
A|------------------------------------------------------------------||
E|-0-000-0-3\2-0-0-2\1-0-0-0-0-0-1--0-000-0-3\2-0-0-2\1-0-0-0-0-2-0-||

Riff 2 x4
G|-------------------------------------------------------------------||
D|-------------------------------------------------------------------||
A|-7-777-7-8-7-5/7--7-777-7-8-7-10--8-888-8-10-8-7/-8--5-555-5-7-5---||
E|-----------------------------------------------------------------6-||

Solo                       X2|                          X2|                                          
G|---------------------------|----------------------------||X4
D|---------------------------|----------------------------||
A|---------------------------|--111111-1--000000-0--000-0-||
E|-000000-0--000000-0--000-3-|----------------------------||

G|---------------||
D|---------------||
A|---------------||
E|-0-r------0-r--||



Interlude x4 
G|-------------------|---------7---------|------------------|-----------------||
D|-------------------|------7------------|------------------|-----2h3--2--5-3-||
A|--7-------7---7----|--5---------5---5--|--3---------3---3-|---2-------------||
E|-------------------|-------------------|------------------|-0---------------||

Pre-riff 3 
G|-------------------------------------------------------------------|          
D|-------------------------------------------------------------------|          
A|-------------------------------------------------------------------|           
E|-3-------------------------------------------------------------0-3-|          
 | 
G|-------------------------------------------------------------|              
D|-------------------------------------------------------------|       
A|-------------------------------------------------------------|
E|----------------------------------------------6666-6--5555-5-|
 |
G|-------------------------------------------------------------------|          
D|-------------------------------------------------------------------|          
A|-------------------------------5h6---------------------------------|           
E|-3-------------------------------------------------------------0h3-|          
 | 
G|---------------------------------------------------------------||              
D|---------------------------------------------------------------||       
A|-----------------------------5h6-------------------------------||
E|----------------------------------------------6666-6--5555-5-0-||

Riff 3 x2
G|-------------------------------------------------------------------|          
D|-------------------------------------------------------------------|          
A|-------------------------------5h6---------------------------------|           
E|-3-3-333-3-333-3-333-3-333-333-----3-333-3-333-3-333-3-333-333-0h3-|          
 | 
G|---------------------------------------------------------------||              
D|---------------------------------------------------------------||       
A|-----------------------------5h6-------------------------------||
E|-3-333-3-333-3-333-3-333-333-----3-333-3-333--6666-6--5555-5-0-|| 

Riff 4 x4                                                                           
G|----------------------------------------------------------------------------||
D|----------------------------------------------------------------------------||
A|--------------------------------3-------------------------------------------||
E|-3--3-2-3--5---5-3-5--3--3-2-3------6-5-6--3--3-2-3--5---5-3-5--1--1-3-5--3-||

Bridge             x2|                x2|
G|-------------------|------------------|X2                               
D|-------------------|------------------|   
A|-------------------|------------------|                                       
E|-3--3-333-5-3-2-3--|-2--2-222-5-3-2-3-|                                                                                                                 
 |                                                                        
 |                          x2|                          x2|                                                                                     
G|----------------------------|----------------------------|X2                    
D|----------------------------|----------------------------|  
A|----------6---5---3-----3h5-|----------5---4---2-----2h4-|             
E|-3--3-333---3---3---3-3-----|-2--2-222---2---2---2-2-----|
 |
 |                 x2|                x2|
G|-------------------|------------------|X2                               
D|-------------------|------------------|   
A|-------------------|------------------|                                       
E|-3--3-333-5-3-2-3--|-2--2-222-5-3-2-3-|                                                                                                                 
 |                                                                        

 |                          x2|                          x2|                                                                                     
G|----------------------------|----------------------------||X2                    
D|----------------------------|----------------------------||  
A|----------6---5---3-----3h5-|----------5---4---2-----2h4-||             
E|-3--3-333---3---3---3-3-----|-2--2-222---2---2---2-2-----||

Pre-verse 
G|---------------------------------|X2
D|---------------------------------|
A|--5-r------------4-r-------------|
E|---------------------------------|
 |
G|---------------------------------||X2
D|---------------------------------||
A|--5-r--5--5-r----4-----4--r----4-||
E|---------------------------------||

"Enter the sixth circle....."

Verse 5 x4                                               
G|---------------------------------------||
D|---------------------------------------||
A|-555555555555555555-444444444444444444-||
E|---------------------------------------||

G|------------------------------------------------------|
D|------------------------------------------------------|
A|------------------------------------------------------|
E|--3--5--2----3--5--2----3--5--2--3--0--0-0-1-0--0-0-0-|
 |
G|-----------------------------------------------||
D|-----------------------------------------------||
A|-----------------------------------------------||
E|--3--5--2----3--5--2----3--5--2--3--0--0-0-1-0-||

Guitar riff

G|----------------------||
D|----------------------||
A|----------------------||
E|-0--------0--------0--||

G|----------------------------------------------------------------||
D|-------------------------------5------------------------5-------||
A|-7--7--7--8--5---7--7--7--7--8---7---7--7--7--8--5--7------8--5-||
E|----------------------------------------------------------------||

Riff 5 x2
G|----------------------------------------------------------|
D|----------------------------------------------------------|   
A|---------------------5-5----------------------------------| 
E|-0-0-0-0-0-0-0-0-1-1------0-0-0-0-0-0-0-0-0-0-0-0-1-1-3-3-| 
 |                                                                
G|-------------------------------------------------------------||          
D|-------------------------------------------------------------||     
A|-----------------------------5-5----------------------5-r----||
E|-0-0-0-0-0-0-0-0-0-0-0-0-1-1------0-0-0-0-3-3-3-2-2-2--------||

Riff 6 x2
G|--------------------------------------------------------------|
D|--------------------------------------------------------------|     
A|-2-----2-----2---3-----3-----3---0-----0-----0---2-----2------|            
E|---0-0---0-0---0---0-0---0-0---0---0-0---0-0---0---0-0---//\\-|            
 |                                                                  
G|-----------------------------------------------------------------||         
D|-----------------7-------------------------------7---------------||  
A|----8-----8------------8-----7h8-----8-----8-----------8-----7h8-||
E|-6----6-6---6-6----6-6---6-6-----6-6---6-6---6-6---6-6---6-6-----||

Riff 7 x4
G|------------------------------------------||
D|------------------------------------------||  
A|--5-5555-5-5555-6-6666-3-3333-5-555-5-555-||          
E|------------------------------------------||          

Arp
G|--------------------------------------|
D|--------------------------------------|
A|--5-r-------6-r--------5-r--------6-r-|
E|--------------------------------------|

Verse 6
G|--------------------------------------|
D|--------------------------------------|
A|--5-r-------6-r--------5-r--------6-r-|
E|--------------------------------------|
 |
G|--------------------------------------|
D|--------------------------------------|
A|--3-r-------2-r--------3-r--------2-r-|
E|--------------------------------------|
 |
G|--------------------------------------||X2
D|--------------------------------------||
A|--------------------------------------||
E|--0-r-------1-r--------0-r--------1-r-||

Guitar, effects, voice  
G|----------------------------------||X16
D|----------------------------------||
A|----------------------------------||
E|-0-000-0-000-0-000-0-000-00000000-||
 
Verse 7

Verse 8  x6                                                                        
G|-----------------------------------------------------------------------||
D|-----------------------------------------------------------------------||
A|-----------------------------------------------------------------------||
E|-1--1--0--0-0-0-0--0--0-0--1--0-0-0--1--1-1-1--0-0-0-0-0-1-0-1\0-0-0-0-||
 | "Lucifer..."
 |
G|-------------||
D|-------------||
A|-------------||
E|--1--1--1--0-||

Riff 8 
G|---------------------------------------------------------|X3
D|---------------------------------------------------------|
A|--------------------------------1-111-1-111-111----------|
E|-0-000-0-00000000-0-0-0-0-0000-------------------1-1-1-0-|
 |
G|------------------------------------------------||
D|------------------------------------------------||
A|--------------------------------1-111-1-111-111-||
E|-0-000-0-00000000-0-0-0-0-0000------------------||




Ending (fades out) 
G|------------------------------------------------------------------||
D|------------------------------------------------------------------||
A|-2-----0-----2-----0-----2----0-2-3-----0-----3-----0-----3---3---||
E|---000---000---000---000---00-------000---000---000---000---0---0-||

Live Ending
G|-------------------------------------------------------||
D|-------------------------------------------------------||
A|--2---------3-----5---3---2----------3------5---3------||
E|-----------------------------------------------------0-||


  development and support by
dmitry ivanov