rock
 
|tablatures   |lyrics   |discussion forums   |more tabs @ XGuitar.com

Iced Earth tabs

Damien bass tab

Iced Earth
Damien
from Horror Show by Schaffer
Transcripted by Stefano Lopez (toscanino@inwind.it)
      edited by J Lindell     (jjlindell@yahoo.com)
                Zac Schaffer (WickedEarth@IronMaiden.com)
                Hector Gonzalez (MobRules@aol.com)

FIND EVERY ICED EARTH SONG AND
THE MOST UPDATED VERSION OF THIS SONG AT:

                          The Frozen Palace
                  http://abysslord.com/icedearth/

PLEASE DO NOT COPY THIS TAB TO ANOTHER SITE 
WITHOUT AUTHORS' PERMISSION.  THANK YOU.

Tune  step down

Intro 
G|---9---10p9-9-----9----------7------|
D|----------------9---9------7---7----|
A|----------------------7----------5--| (first time)
E|-0---0--------0----------0----------|

G|---9---10p9-9-----9----------7------|
D|---9---10p9-----9---9------7---7----|
A|----------------------7----------5--| (rest of the time)
E|-0---0--------0----------0----------|


Choirs

Acoustic guitar

Verse 1 x4 (the bass follows the bass drum)
G|------------------------|----------------------------||
D|------------------------|----------------------------||
A|------------------------|----------------------------||
E|-1-0-1-0--00-0--0--0000-|-1-1/3-3\1-1\0--00-0--0000--||

Riff 1
G|---------------------------------------|------------------------------------|
D|---------------------------------------|------------------------------------|
A|---------------------------------------|------------------------------------|
E|-0--0-0-0-0-0-0-0----------------------|-0--0-0-0-0-0-0-0-------------------|
 |
G|---------------------------------------|------------------------------------||
D|---------------------------------------|-----------------------4-5-4--------||
A|---------------------5-7-8-7-5--8-7~~\-|-------------------5-7--------8~~\--||
E|-0--0-0-0-0-0-0-0----------------------|-0--0-0-0-0-0-0-0-------------------||
 
Verse 2 x2
G|-----------------|-----------------|-----------------|----------------||
D|-----------------|-----------------|-----------------|----------------||
A|-7----7----7-----|-5----5----5-----|-3----3----3-----|-2----2---2h3-5-||
E|----0----0---0-0-|----0----0---0-0-|----0----0---0-0-|----0---0-------||

Verse 3 x4 (the bass follows the bass drum)
G|------------------------|----------------------------||
D|------------------------|----------------------------||
A|------------------------|----------------------------||
E|-1-0-1-0--00-0--0--0000-|-1-1/3-3\1-1\0--00-0--0000--||

Riff 1
G|---------------------------------------|------------------------------------|
D|---------------------------------------|------------------------------------|
A|---------------------------------------|------------------------------------|
E|-0--0-0-0-0-0-0-0----------------------|-0--0-0-0-0-0-0-0-------------------|
 |
G|---------------------------------------|------------------------------------||
D|---------------------------------------|-----------------------4-5-4--------||
A|---------------------5-7-8-7-5--8-7~~\-|-------------------5-7--------8~~\--||
E|-0--0-0-0-0-0-0-0----------------------|-0--0-0-0-0-0-0-0-------------------||

Chorus x4
G|---------------------------------------|-----------------------------|
D|---------------------------------------|-----------------------------|
A|-7------7------7-7\-5------5------5-5\-|-3------3------3-3\-2------2-|
E|---0--0---0--0--------0--0---0--0------|---0--0---0--0--------0--0---|
 |

G|----------------||
D|----------------||
A|-----2-2-2-3-3/-||
E|-0-0------------||

Riff 1
G|---------------------------------------|------------------------------------|
D|---------------------------------------|------------------------------------|
A|---------------------------------------|------------------------------------|
E|-0--0-0-0-0-0-0-0----------------------|-0--0-0-0-0-0-0-0-------------------|
 |
G|---------------------------------------|------------------------------------||
D|---------------------------------------|-----------------------4-5-4--------||
A|---------------------5-7-8-7-5--8-7~~\-|-------------------5-7--------8~~\--||
E|-0--0-0-0-0-0-0-0----------------------|-0--0-0-0-0-0-0-0-------------------||

G|--------||
D|--------||
A|--------||
E|--0-r---||

Interlude
G|-------2-------2-------3-r-|-------3--------3------3-3/2----2-r-||
D|----0-------2-------0------|----0--------0------------------0-r-||
A|-0-------0-------0---------|-0--------0---------------------0---||
E|---------------------------|------------------------------------||

Verse 4 x3
G|-------2-------2-------3-r-|-------3--------3------3-3/2----2-r-||
D|----0-------2-------0------|----0--------0------------------0-r-||
A|-0-------0-------0---------|-0--------0---------------------0---||
E|---------------------------|------------------------------------||


Solo x2
G|---------------------------------------|-----------------------------|
D|---------------------------------------|-----------------------------|
A|-7------7------7-7\-5------5------5-5\-|-3------3------3-3\-2------2-|
E|---0--0---0--0--------0--0---0--0------|---0--0---0--0--------0--0---|
 |
G|----------------||
D|----------------||
A|-----2-2-2-3-3/-||
E|-0-0------------||

Verse 5 x4 (the bass follows the bass drum)
G|------------------------|----------------------------||
D|------------------------|----------------------------||
A|------------------------|----------------------------||
E|-1-0-1-0--00-0--0--0000-|-1-1/3-3\1-1\0--00-0--0000--||

Riff 1
G|---------------------------------------|------------------------------------|
D|---------------------------------------|------------------------------------|
A|---------------------------------------|------------------------------------|
E|-0--0-0-0-0-0-0-0----------------------|-0--0-0-0-0-0-0-0-------------------|
 |
G|---------------------------------------|------------------------------------||
D|---------------------------------------|-----------------------4-5-4--------||
A|---------------------5-7-8-7-5--8-7~~\-|-------------------5-7--------8~~\--||
E|-0--0-0-0-0-0-0-0----------------------|-0--0-0-0-0-0-0-0-------------------||



Chorus x4
G|---------------------------------------|-----------------------------|
D|---------------------------------------|-----------------------------|
A|-7------7------7-7\-5------5------5-5\-|-3------3------3-3\-2------2-|
E|---0--0---0--0--------0--0---0--0------|---0--0---0--0--------0--0---|
 |
G|----------------||
D|----------------||
A|-----2-2-2-3-3/-||
E|-0-0------------||

Ending Solo x8 (the bass follows the bass drum)
G|------------------------|----------------------------||
D|------------------------|----------------------------||
A|------------------------|----------------------------||
E|-1-0-1-0--00-0--0--0000-|-1-1/3-3\1-1\0--00-0--0000--||

Outro: choirs & piano

  development and support by
dmitry ivanov