rock
 
|tablatures   |lyrics   |discussion forums   |more tabs @ XGuitar.com

Iced Earth tabs

Creator Failure bass tab

ICED EARTH
Creature Failure
from Burnt Offerings & Days of Purgatoy by Schaffer, Shawver, Abell, Barlow
Transcripted by Stefano Lopez (toscanino@inwind.it)

FIND EVERY ICED EARTH SONG AND
THE MOST UPDATED VERSION OF THIS SONG AT:

                          The Frozen Palace
                  http://abysslord.com/icedearth/
  
PLEASE DO NOT COPY THIS TAB TO ANOTHER SITE 
WITHOUT AUTHORS' PERMISSION.  THANK YOU.

Tune down  step 

Intro x4
G|-----------------------------------------||
D|-----------------------------------------||
A|-5--8--7---5--7------5--7--8---7--8--8-8-||
E|-----------------0-0---------------------||

Riff 1 x4
G|-----------------------------------||
D|-----------------------------------||
A|-5---8--7------7-7------7----------||
E|----------7777-----7777---77777777-||

Verse 1                  X3|
G|-------------------------|-------------------||X2
D|-------------------------|-------------------||
A|-5--8--7----7------------|--5--8--7----7-----||
E|----------0----0--0--0-0-|-----------0----3--||

Verse 2 x4
G|-----------------------------------||
D|-----------------------------------||
A|-5---8--7------7-7------7----------||
E|----------7777-----7777---77777777-||

G|----------||X2
D|----------||
A|-5--8--7--||
E|----------||

G|------------------------------------------------||X4
D|------------------------------------------------||
A|------------------------------------------------||
E|-0-0------0-0-----------1-1------1-1----------5-||

Interlude x2
G|----------------------------------||
D|-------------5-4------------------||
A|----5-4----------------5-4--------||
E|--7-----7-5----------7-----7-5--7-||   

Verse 3 x2
G|----------------------------------||
D|-------------5-4------------------||
A|----5-4----------------5-4--------||
E|--7-----7-5----------7-----7-5--7-||   

G|----------------------||X4
D|----------------------||
A|-2--2-2--2-2--222-----||
E|------------------5-3-||

 




Pre-riff 2
G|-------------------------------------------|
D|-------------------------------------------|
A|-2------0-2------2-------------------------|
E|-------------------------------------------|
 |
G|---------------------------------------||
D|---------------------------------------||
A|-2------0-2------2------3333-5555-3333-||
E|---------------------------------------||

Riff 2 x2
G|---------------------------------------||
D|---------------------------------------||
A|-2-2222-2-2-2222-2-2222-3333-5555-3333-||
E|---------------------------------------||

Verse 4 x4
G|---------------------------------------||
D|---------------------------------------||
A|-2-2222-2-2-2222-2-2222-3333-5555-3333-||
E|---------------------------------------||

Solo x4
G|--------------------------------------------------------------------|
D|--------------------------------------------------------------------|
A|-2-2-2-2-2-2-2-2-2-2-2-2-2-2-2-2-5--7-7-7-7-7-7-7-7-7-7-7-7-7-7-7-7-|
E|--------------------------------------------------------------------|
 |                              
G|--------------------------------------------------------------------||
D|--------------------------------------------------------------------||
A|-2-2-2-2-2-2-2-2-2-2-2-2-2-2-2-2------------------------------------||
E|---------------------------------5--3-3-3-3-3-3-3-3-3-3-3-3-3-3-3-3-||
  
Riff 3             X4|
G|-------------------|-----------------------------|
D|-------------------|-----------------------------|
A|-22222222-55-33-22-|-----------------------------|
E|-------------------|-00000000-22222222-3333-2222-|
                   X2|
G|-------------------|-----------------------------|X2
D|-------------------|-----------------------------|
A|-22222222-55-33-22-|-----------------------------|
E|-------------------|-00000000-22222222-3333-2222-|
 |
G|-------------------|X2
D|-------------------|
A|-2-22-3-2-22-5-3-2-|
E|-------------------|
 |
G|-----||
D|-----||
A|--7--||
E|--0--||

Arp
G|------------------------|X2
D|------------------------|
A|-2--r--------2--r-------|
E|------------------------|



Verse 5
G|------------------------|X4
D|------------------------|
A|-2--r--------2--r-------|
E|------------------------|
 |
G|-----------------------------------||'Til fade out
D|-----------------------------------||
A|-------------------------6-6--5-r--||
E|-0--0--0--0-0---0--1-0-------------||


  development and support by
dmitry ivanov