rock
 
|tablatures   |lyrics   |discussion forums   |more tabs @ XGuitar.com

Iced Earth tabs

Consequences bass tab

ICED EARTH
Consequences
from Something Wicked this Way Comes by Schaffer
Transcripted by Stefano Lopez (toscanino@inwind.it)

FIND EVERY ICED EARTH SONG AND
THE MOST UPDATED VERSION OF THIS SONG AT:

                          The Frozen Palace
                  http://abysslord.com/icedearth/

PLEASE DO NOT COPY THIS TAB TO ANOTHER SITE 
WITHOUT AUTHORS' PERMISSION.  THANK YOU.

Tune down  step

Intro
G|---------------------------------------------------------------------------||
D|---------------------------------------------------------------------------||
A|---------7-------5-----------7------5---------------5-----------7------5---||
E|--0---0-----0--3---3--0---0-----0-3---3--5--5--5--3---3--0---0-----0-3---3-||

Verse 1 x2
G|---------------------------------------------------------------------------||
D|---------------------------------------------------------------------------||
A|---------7-------5-----------7------5---------------5-----------7------5---||
E|--0---0-----0--3---3--0---0-----0-3---3--5--5--5--3---3--0---0-----0-3---3-||

Chorus
G|-----------------------------------------------------------------||
D|-----------------------------------------------------------------||
A|---0---0---0-----------------------------------------------------||
E|---------------3-2--3--3--3--3---3-2--0--0--0--3-2--0--0--0--3-2-||

Verse 2 x2
G|---------------------------------------------------------------------------||
D|---------------------------------------------------------------------------||
A|---------7-------5-----------7------5---------------5-----------7------5---||
E|--0---0-----0--3---3--0---0-----0-3---3--5--5--5--3---3--0---0-----0-3---3-||
 
Chorus                                                        |only on 1st time
G|------------------------------------------------------------|-----||x2
D|------------------------------------------------------------|-----||
A|---0---0---0------------------------------------------------|-----||
E|---------------3-2--3--3--3--3---3-2--0--0--0--3-2--0--0--0-|-3-2-||

Solo                        x2|
G|----------------------------|-----------------------------------------------------|
D|----------------------------|-----------------------------------------------------|
A|----------------------------|------------------------------5----------------------|
E|--3--2--0--0-0-0--0--0---0--|-3--2--5--5-5-5--5--5---5---3-----0--0-0-0--0--0--0--|
 |                          x2|
G|----------------------------|--------------------------------------------------------|
D|----------------------------|--------------------------------------------------------|
A|----------------------------|-------------------------------5------------------------|
E|--3--2--0--0-0-0--0--0---0--|-3--2--5--5-5-5--5--5---5---3----0--0-0-0--0--0--0--3-2-|
 |
G|----------------------------------------------------------------------------------------------||X2
D|----------------------------------------------------------------------------------------------||
A|----------------------------------------------------------------------------------------------||
E|-5--5-555-5--5-5-5-555-55-4-44-3-3-333-3--3--3\0--0-0-0-0--0--0--3--2--0--0-0-0-0--0--0--3--2-||

Verse 3 x2
G|---------------------------------------------------------------------------||
D|---------------------------------------------------------------------------||
A|---------7-------5-----------7------5---------------5-----------7------5---||
E|--0---0-----0--3---3--0---0-----0-3---3--5--5--5--3---3--0---0-----0-3---3-||

Chorus
G|-----------------------------------------------------------------||X2
D|-----------------------------------------------------------------||
A|---0---0---0-----------------------------------------------------||
E|---------------3-2--3--3--3--3---3-2--0--0--0--3-2--0--0--0--3-2-||


Ending x2
G|----------------------------------------------------------||
D|----------------------------------------------------------||
A|------------------5--5-5--5-------------------------------||
E|--0--0-0--0---3---------------5--5-5--5---3---0--0-0--0---||

Outro x2 ('til fade out)
G|----------------------------------------------------------||
D|----------------------------------------------------------||
A|------------------5--5-5--5-------------------------------||
E|--0--0-0--0---3---------------5--5-5--5---3---0--0-0--0---||



  development and support by
dmitry ivanov