rock
 
|tablatures   |lyrics   |discussion forums   |more tabs @ XGuitar.com

Iced Earth tabs

Colors bass tab

ICED EARTH:  Colors

from Iced Earth Comes by Schaffer
Transcripted by Stefano Lopez (toscanino@inwind.it)

FIND EVERY ICED EARTH SONG AND
THE MOST UPDATED VERSION OF THIS SONG AT:

                          The Frozen Palace
                  http://abysslord.com/icedearth/
 
PLEASE DO NOT COPY THIS TAB TO ANOTHER SITE 
WITHOUT AUTHORS' PERMISSION.  THANK YOU.

Tune down  step

Intro x2
G|-----------------------------------------------------------------|
D|-----------------------------------------------------------------|
A|-----------------------------------------------------------------|
E|-0-0-0-0-0-0-0-0-0-0-0-0-0-0-0-2-3-3-3-3-3-3-3-3-3-3-3-3-3-3-5-3-|
 |
G|-----------------------------------------------------------------||
D|-----------------------------------------------------------------||
A|-----------------------------------------------------------------||
E|-2-2-2-2-2-2-2-2-2-2-2-2-2-2-3-2-0-0-0-0-0-0-0-0-0-0-0-0-0-0-0-0-||

Riff 1 x2
G|-----------------------------------------------------------------|
D|-----------------------------------------------------------------|
A|-----------------------------------------------------------------|
E|-0-0-0-0-0-0-0-0-0-0-0-0-0-0-0-2-3-3-3-3-3-3-3-3-3-3-3-3-3-3-5-3-|
 |
G|-----------------------------------------------------------------||
D|-----------------------------------------------------------------||
A|-----------------------------------------------------------------||
E|-2-2-2-2-2-2-2-2-2-2-2-2-2-2-3-2-0-0-0-0-0-0-0-0-0-0-0-0-0-0-0-0-||

Verse 1 x2
G|-----------------------------------------------------------------|
D|-----------------------------------------------------------------|
A|-----------------------------------------------------------------|
E|-0-0-0-0-0-0-0-0-0-0-0-0-0-0-0-2-3-3-3-3-3-3-3-3-3-3-3-3-3-3-5-3-|
 |
G|-----------------------------------------------------------------||
D|-----------------------------------------------------------------||
A|-----------------------------------------------------------------||
E|-2-2-2-2-2-2-2-2-2-2-2-2-2-2-3-2-0-0-0-0-0-0-0-0-0-0-0-0-0-0-0-0-||

Riff 2
G|---------------------------------------------------------||
D|---------------------------------------------------------||
A|---------------------------------------------------------||
E|-0-000-2-3-3-333-3-5-3-2-2-0-2-2-2-2-3-3-3-3-2-2-3-2-0-/-||

Verse 2 x2
G|-----------------------------------------------------------------|
D|-----------------------------------------------------------------|
A|-----------------------------------------------------------------|
E|-0-0-0-0-0-0-0-0-0-0-0-0-0-0-0-2-3-3-3-3-3-3-3-3-3-3-3-3-3-3-5-3-|
 |
G|-----------------------------------------------------------------||
D|-----------------------------------------------------------------||
A|-----------------------------------------------------------------||
E|-2-2-2-2-2-2-2-2-2-2-2-2-2-2-3-2-0-0-0-0-0-0-0-0-0-0-0-0-0-0-0-0-||

Riff 2 x2
G|---------------------------------------------------------||
D|---------------------------------------------------------||
A|---------------------------------------------------------||
E|-0-000-2-3-3-333-3-5-3-2-2-0-2-2-2-2-3-3-3-3-2-2-3-2-0-/-||

Chorus x4
G|----------------------------------------------------------||
D|----------------------------------------------------------||
A|----------------------------------------------------------||
E|-0--0-0-0--0-2-3-2-0-3-2-0-2--1--1-1-1--0-2-3-2-0-3-2-0-2-||

Pre-riff 3
G|----------------------------------|----------------------------------||
D|----------------------------------|----------------------------------||
A|----------------------------------|-------------------------------7/-||
E|-0--------------------------------|----------------------------------||
 
Riff 3 
G|----------------------------------|----------------------------------|X3
D|----------------------------------|-6-666-7-7-7-6-6------------------|
A|----------------------------------|-----------------777-8-8-8-7-6-7\-|
E|-0-000-000-000-000-000-000-000-00-|----------------------------------|
 |
G|----------------------------------||
D|----------------------------------||
A|----------------------------------||
E|-0-000-000-000-000-000-000-000-00-||

Interlude
G|----------------------------------------------------------------||X3
D|----------------------------------------------------------------||
A|-3-3--3-2-2--2-3-3--3-2-2--2-5-5--5-3-3--3-5-5--5-3-3--3-4-4--4-||
E|----------------------------------------------------------------||

Riff 4 x2
G|-----------------------------------------------------|X2
D|-----------------------------------------------------|
A|-3-3-3-3-3-3-3-3-3-3-3-3-0-2-2-2-2-2-2-2-2-2-2-2-2-0-|
E|-----------------------------------------------------|
 |
G|-----------------------------------------------------|
D|-----------------------------------------------------|
A|-5-5-5-5-5-5-5-5-5-5-5-5-0-3-3-3-3-3-3-3-3-3-3-3-3-0-|
E|-----------------------------------------------------|
 |
G|---------------------------------------------------||
D|---------------------------------------------------||
A|-5-5-5-5-5-5-5-5-5-5-5-5-0-3-3-3-3-3-0-4-4-4-4-4-0-||
E|---------------------------------------------------||

Pre-solo x2
G|-------------------------------||
D|-------------------------------||
A|-------------------------------||
E|-2--0--2-----------------------||

Solo 1 x6
G|-------------------------------|
D|-------------------------------|
A|-------------------------------|
E|-2--0--2-2-2-2-0-2-0-3-2-2-2-0-|

Solo 2 x4
G|---------------------------------------------------||
D|---------------------------------------------------||
A|---------------------------------------------------||
E|-0--2--2-2--2--2-2--0--2--2-2--2--2-2-0--0-0--3--2-||

Pre-riff 3
G|----------------------------------|----------------------------------||
D|----------------------------------|----------------------------------||
A|----------------------------------|-------------------------------7/-||
E|-0--------------------------------|----------------------------------||
 
Riff 3 
G|----------------------------------|----------------------------------|X3
D|----------------------------------|-6-666-7-7-7-6-6------------------|
A|----------------------------------|-----------------777-8-8-8-7-6-7\-|
E|-0-000-000-000-000-000-000-000-00-|----------------------------------|
 |
G|----------------------------------||
D|----------------------------------||
A|----------------------------------||
E|-0-000-000-000-000-000-000-000-00-||

Chorus x4
G|----------------------------------------------------------||
D|----------------------------------------------------------||
A|----------------------------------------------------------||
E|-0--0-0-0--0-2-3-2-0-3-2-0-2--1--1-1-1--0-2-3-2-0-3-2-0-2-||

Ending
G|-----------------------------------------||
D|------6-666-7-7-7-6-6--------------------||
A|----------------------7-777-8-8-8-7-6-7\-||
E|-0---------------------------------------||

  development and support by
dmitry ivanov