rock
 
|tablatures   |lyrics   |discussion forums   |more tabs @ XGuitar.com

Iced Earth tabs

Burnt Offerings bass tab

ICED EARTH
Burnt Offerings
from Burnt Offerings by Schaffer, Shawner
Transcripted by Stefano Lopez (toscanino@inwind.it)

FIND EVERY ICED EARTH SONG AND
THE MOST UPDATED VERSION OF THIS SONG AT:

                          The Frozen Palace
                  http://abysslord.com/icedearth/

PLEASE DO NOT COPY THIS TAB TO ANOTHER SITE 
WITHOUT AUTHORS' PERMISSION.  THANK YOU.

Tune down  step

Keyboards intro

Intro x2
Gb|----------------------------------||
Db|----------------------------------||
Ab|----------------------------------||
Eb|-5-r---4-4-------5-r----0-7-5-4-r-||

Intro 2                           X2|                               X2|
Gb|---------------------------------|---------------------------------||
Db|---------------------------------|---------------------------------||
Ab|-4--r------------3--r------------|-4-4-4-4-4-4-4-4-3-3-3-3-3-3-3-3-||
Eb|---------------------------------|---------------------------------||

Pre-verse 1                           X2|
Gb|-------------------------------------|---------------------------------||
Db|-------------------------------------|---------------------------------||
Ab|-4------------------------------7-7--|-3-r-----------------------------||
Eb|-------------------------------------|---------------------------------||

Verse 1 x4                 X2|
Gb|--------------------------|----------------------||
Db|--------------------------|----------------------||
Ab|-4444555544444444-7777-7\-|-3333333333333333-3-3-||
Eb|--------------------------|----------------------||

Riff 1 x2
Gb|-----------------------------------|---------------------------------------||
Db|-----------------------------------|---------------------------------------||
Ab|-4-4-4-4-4-4-4-4-4-4-4-4-4-4-4-4-4-|-2-2-2-2-2-2-2-2-2-2-2-2-2-2-2-2-2-2-2-||
Eb|-----------------------------------|---------------------------------------||

Verse 2 x4                 X2|
Gb|--------------------------|----------------------||
Db|--------------------------|----------------------||
Ab|-4444555544444444-7777-7\-|-3333333333333333-3-3-||
Eb|--------------------------|----------------------||

Riff 1 x2
Gb|-----------------------------------|---------------------------------------||
Db|-----------------------------------|---------------------------------------||
Ab|-4-4-4-4-4-4-4-4-4-4-4-4-4-4-4-4-4-|-2-2-2-2-2-2-2-2-2-2-2-2-2-2-2-2-2-2-2-||
Eb|-----------------------------------|---------------------------------------||

Chorus x4
Gb|-------------------------------------------------------------------||
Db|-------------------------------------------------------------------||
Ab|-4-4-4-4-4-4-4-4-4-----------------2-2-2-2-2-2-2-2-0-0-0-0-0-0-0-0-||
Eb|-------------------0-0-0-0-0-0-0-0---------------------------------||

Riff 2 x2                                                     
Gb|-----------------------------------------------------------||
Db|-----------------------------------------------------------||
Ab|-3--3--4--4--4---3--3--2--2--2---3--3--4--4--4-------------||
Eb|-------------------------------------------------0--1--3-r-||


Riff 3 x4
Gb|-----|---------------------------------------------------|
Db|-----|---------------------------------------------------|
Ab|-----|---------------------------------------------------|
Eb|-0h2-|-2-2-2-2-2-2-2-2-2-2-3-3-0h2-2-2-2-2-2-2-2-2-2-2-2-|
  |1stonly|                                    |1.2.3   |4.
Gb|------------------------------------------|--------|---------||
Db|------------------------------------------|--------|---------||
Ab|------------------------------------------|--------|---------||
Eb|-0-0-0h2-2-2-2-2-2-2-2-2-2-2-3-3--0--1--3-|--5--2--|--5--7-r-||

Guitar arp 

Guitar arp
Gb|----------------------------------------------------|
Db|----------------------------------------------------|
Ab|-2--r----------------------3--r---------------------|
Eb|----------------------------------------------------|
  |
Gb|----------------------------------------------------||
Db|----------------------------------------------------||
Ab|-2--r----------------------0--r---------------------||
Eb|----------------------------------------3--r--------||
                                                                              
Verse 4 x3
Gb|----------------------------------------------------|
Db|----------------------------------------------------|
Ab|-2--r----------------------3--r---------------------|
Eb|----------------------------------------------------|
  |
Gb|----------------------------------------------------||
Db|----------------------------------------------------||
Ab|-2--r----------------------0--r---------------------||
Eb|----------------------------------------3--r--------||

Guitar arp ending
Gb|-------------------------------------------------------||
Db|-------------------------------------------------------||
Ab|-2-r-------0-2-3-r-------2-0-2-r-------3-2--2---2---3--||
Eb|-------------------------------------------------------||

Guitar arp 2 x4
Gb|--------------|--------------|--------------|--------------||
Db|--------------|--------------|--------------|--------------||
Ab|--------------|--------------|--------------|--------------||
Eb|-5-r------4-r-|-5-r----5-4-r-|-5-r------4-r-|-5-r------4-r-||                                                                             

Verse 5 
Gb|--------------------|----------------|X2
Db|-7---9--10--6---7-6-|-7---9--10--6-r-|
Ab|--------------------|----------------|
Eb|--------------------|----------------|                                                                             
  |
Gb|-----------------------------------|------------------------------------||
Db|-----------------------------------|------------------------------------||
Ab|-----------------------------------|------------------------------------||
Eb|-5-r-----4-4------5-r------7-5-4-r-|-5-r-----4-4-/----5-r-------7-5-4-r-||
Solo                       X2|
Gb|--------------------------|----------------------|X2
Db|--------------------------|----------------------|
Ab|-4444555544444444-7777-7\-|-3333333333333333-3-3-|
Eb|--------------------------|----------------------|
  |
Gb|-------------------------||X4
Db|-------------------------||
Ab|-44444477777755555444777-||
Eb|-------------------------||

Riff 1 x2
Gb|-----------------------------------|---------------------------------------||
Db|-----------------------------------|---------------------------------------||
Ab|-4-4-4-4-4-4-4-4-4-4-4-4-4-4-4-4-4-|-2-2-2-2-2-2-2-2-2-2-2-2-2-2-2-2-2-2-2-||
Eb|-----------------------------------|---------------------------------------||

Chorus x2
Gb|-------------------------------------------------------------------||
Db|-------------------------------------------------------------------||
Ab|-4-4-4-4-4-4-4-4-4-----------------2-2-2-2-2-2-2-2-0-0-0-0-0-0-0-0-||
Eb|-------------------0-0-0-0-0-0-0-0---------------------------------||

Outro (x8 then fade out)
Gb|-------------------------------------------------------------------||
Db|-------------------------------------------------------------------||
Ab|-4-4-4-4-4-4-4-4-4-----------------2-2-2-2-2-2-2-2-0-0-0-0-0-0-0-0-||
Eb|-------------------0-0-0-0-0-0-0-0---------------------------------||
  development and support by
dmitry ivanov