rock
 
|tablatures   |lyrics   |discussion forums   |more tabs @ XGuitar.com

Iced Earth tabs

Burning Times bass tab

ICED EARTH
Burning Time
from Something Wicked this Way Comes by Schaffer, Barlow
Transcripted by Stefano Lopez (toscanino@inwind.it)

FIND EVERY ICED EARTH SONG AND
THE MOST UPDATED VERSION OF THIS SONG AT:

                          The Frozen Palace
                  http://abysslord.com/icedearth/

PLEASE DO NOT COPY THIS TAB TO ANOTHER SITE 
WITHOUT AUTHORS' PERMISSION.  THANK YOU.

Tune down  step

Intro
G|-----------------------------------------------------------|
D|-----------------------------------------------------------|
A|-----------------------------------------------------------|
E|-0-0-0-000--0-0-0-0-0-0-0-0-0---0-0-0-000--0-0-0-0-0-0-0-0-|  
 |
G|----------------------------------------------------||
D|----------------------------------------------------||End of intro
A|--------------------------------3-3-333--5-2--------||
E|-0-0-0-000--0-0-0-0-0-0-0-0-0-----------------3-2~~-||

Riff 1
G|-----------------------------------------------------------|
D|-----------------------------------------------------------|
A|-----------------------------------------------------------|
E|-0-0-0-000--0-0-0-0-0-0-0-0-0---0-0-0-000--0-0-0-0-0-0-0-0-|  
 |
G|----------------------------------------------------||
D|----------------------------------------------------||End of riff 1
A|--------------------------------3-3-333--5-2--------||
E|-0-0-0-000--0-0-0-0-0-0-0-0-0-----------------3-2~~-||

Verse 1 x4
G|----------------------------------------------------------||
D|----------------------------------------------------------||
A|--------------5----------------------------5--------------||
E|--0-0-0-000-0---0-0-00-0-0-0-0-0-0-000-0-0----0--3/1--1-0-||

Riff 1
G|-----------------------------------------------------------|
D|-----------------------------------------------------------|
A|-----------------------------------------------------------|
E|-0-0-0-000--0-0-0-0-0-0-0-0-0---0-0-0-000--0-0-0-0-0-0-0-0-|  
 |
G|----------------------------------------------------||
D|----------------------------------------------------||End of riff 1
A|--------------------------------3-3-333--5-2--------||
E|-0-0-0-000--0-0-0-0-0-0-0-0-0-----------------3-2~~-||

Verse 2 x4
G|----------------------------------------------------------||
D|----------------------------------------------------------||
A|--------------5----------------------------5--------------||
E|--0-0-0-000-0---0-0-00-0-0-0-0-0-0-000-0-0----0--3/1--1-0-||

Chorus x2
G|-----------------------------------------------------------|
D|-----------------------------------------------------------|
A|-----------------------------------------------------------|
E|-0-0-0-000--0-0-0-0-0-0-0-0-0---0-0-0-000--0-0-0-0-0-0-0-0-|  
 |
G|----------------------------------------------------||
D|----------------------------------------------------||End of chorus
A|--------------------------------3-3-333--5-2--------||
E|-0-0-0-000--0-0-0-0-0-0-0-0-0-----------------3-2~~-||

Solo 
G|----------------------------------------------------------|X2
D|----------------------------------------------------------|
A|---------------------------------------------1--1--1------|
E|-0--0-0-0-0-0-0-0-0-0-0-0-3-3-3-0--0-0-0-0-0---------5-5--|
 |
G|---------------------------------------------||
D|---------------------------------------------||End of solo
A|--3-333-5-2--2-2-2-2-2-2-2--3-333-5-2--------||
E|---------------------------------------3-2~~-||

Verse 3 x4
G|----------------------------------------------------------||
D|----------------------------------------------------------||
A|--------------5----------------------------5--------------||
E|--0-0-0-000-0---0-0-00-0-0-0-0-0-0-000-0-0----0--3/1--1-0-||

Chorus x2
G|-----------------------------------------------------------|
D|-----------------------------------------------------------|
A|-----------------------------------------------------------|
E|-0-0-0-000--0-0-0-0-0-0-0-0-0---0-0-0-000--0-0-0-0-0-0-0-0-|  
 |
G|----------------------------------------------------||
D|----------------------------------------------------||End of chorus
A|--------------------------------3-3-333--5-2--------||
E|-0-0-0-000--0-0-0-0-0-0-0-0-0-----------------3-2~~-||

Outro
G|-----------------------------------------------------------------------------|
D|-----------------------------------------------------------------------------|
A|-----------------------------------------------------------------------------|
E|-0-0-0-0-0-0-0-0-0-0-0-0-0-0-0-0-0-0-0-0-0-0-0-0-0-0-0-0-0-0-0-0-0-0-0-0-0-0-|
 |
G|------------------------------------------------||
D|------------------------------------------------||End of outro
A|--3-333-5-2--2-2-2-2-2-2-2--3-333-5-2-----------||
E|---------------------------------------3-2~~--0-||





  development and support by
dmitry ivanov