rock
 
|tablatures   |lyrics   |discussion forums   |more tabs @ XGuitar.com

Iced Earth tabs

Burning Oasis bass tab

Tune Down

F#||--------------------|--------12--------------|--------------------|
C#||--------------------|----12------------------|--------------------|
G#||--------------------|------------12----------|--------------------|
D#||--12----------------|------------------------|--12----------------|



--------------------|-------------------|------------------|-------------------|
--------------------|-------------------|------------------|-------------------|
--------------------|-------------------|------------------|-------------------|
--------------12/---|--0----------------|------------------|--0----------------|



------------------|-------------------|------------------|-------------------|
------------------|-------------------|------------------|-------------------|
------------------|-------------------|------------------|-------------------|
------------------|--0----------------|------------------|--0----------------|



------------------|-------------------|------------------|-------------------|
------------------|-------------------|------------------|-------------------|
------------------|-------------------|------------------|-------------------|
------------------|--0----------------|------------------|--0----------------|



-------------------------|-----------------------|------------------|
----0--0--0--0--0--0--0--|-------9--7/---2----3--|------------------|
-------------------------|-----------------------|------------------|
-------------------------|--0--------------------|------------------|



----------------------|---------------------|-----------------------|
-------9--7/---2------|--1--0--0------------|-------9--7/---2----3--|
----------------------|---------------------|-----------------------|
--0-------------------|---------------------|--0--------------------|



------------------|----------------------|---------------------|
------------------|-------9--7/---2------|--1--0--0------------|
------------------|----------------------|---------------------|
------------------|--0-------------------|---------------------|



----------------------------------|----------------------------------|
----------------------------------|----------------------------------|
--8-8-8-8-8-8-8-8-8-8-8-8-8-8-8-8-|--7-7-7-7-7-7-7-7-7-7-7-7-7-7-7-8-|
----------------------------------|----------------------------------|



----------------------------------|----------------------------------|
----------------------------------|----------------------------------|
--8-8-8-8-8-8-8-8-8-8-8-8-8-8-8-8-|--7-7-7-7-7-7-7-7-7-7-7-7-7-7-7-8-|
----------------------------------|----------------------------------|



----------------------------------|----------------------------------|
----------------------------------|----------------------------------|
--8-8-8-8-8-8-8-8-8-8-8-8-8-8-8-8-|--7-7-7-7-7-7-7-7-7-7-7-7-7-7-7-8-|
----------------------------------|----------------------------------|



----------------------------------|---------------------------------|
----------------------------------|---------------------------------|
--8-8-8-8-8-8-8-8-8-8-8-8-8-8-8-8-|--7-7-7-7-7-7-7-7-7-7-7-7-7-7-7/-|
----------------------------------|---------------------------------|



-----------------------|------------------|----------------------|
-------9--7/---2----3--|------------------|-------9--7/---2------|
-----------------------|------------------|----------------------|
--0--------------------|------------------|--0-------------------|



---------------------|-----------------------|------------------|
--1--0--0------------|-------9--7/---2----3--|------------------|
---------------------|-----------------------|------------------|
---------------------|--0--------------------|------------------|



----------------------|---------------------|----------------------------------|
-------9--7/---2------|--1--0--0------------|----------------------------------|
----------------------|---------------------|--8-8-8-8-8-8-8-8-8-8-8-8-8-8-8-8-|
--0-------------------|---------------------|----------------------------------|



----------------------------------|----------------------------------|
----------------------------------|----------------------------------|
--7-7-7-7-7-7-7-7-7-7-7-7-7-7-7-8-|--8-8-8-8-8-8-8-8-8-8-8-8-8-8-8-8-|
----------------------------------|----------------------------------|



----------------------------------|----------------------------------|
----------------------------------|----------------------------------|
--7-7-7-7-7-7-7-7-7-7-7-7-7-7-7-8-|--8-8-8-8-8-8-8-8-8-8-8-8-8-8-8-8-|
----------------------------------|----------------------------------|



----------------------------------|----------------------------------|
----------------------------------|----------------------------------|
--7-7-7-7-7-7-7-7-7-7-7-7-7-7-7-8-|--8-8-8-8-8-8-8-8-8-8-8-8-8-8-8-8-|
----------------------------------|----------------------------------|



----------------------------------|-----5-----5----5-------|
----------------------------------|------------------------|
--7-7-7-7-7-7-7-7-7-7-7-7-7-7-7-8-|-------5-7---7----5-7-3-|
----------------------------------|--5---------------------|



-----5-----5----5-------|-----7-----7----7-------|-----7-----7----7-------|
------------------------|------------------------|------------------------|
-------5-7---7----5-7-3-|-------7-9---9----7-9-5-|-------7-9---9----7-9-5-|
--5---------------------|--7---------------------|--7---------------------|



-----5-----5----5-------|-----5-----5----5-------|-----7-----7----7-------|
------------------------|------------------------|------------------------|
-------5-7---7----5-7-3-|-------5-7---7----5-7-3-|-------7-9---9----7-9-5-|
--5---------------------|--5---------------------|--7---------------------|



-----7-----7----7-------|-----5-----5----5-------|-----5-----5----5-------|
------------------------|------------------------|------------------------|
-------7-9---9----7-9-5-|-------5-7---7----5-7-3-|-------5-7---7----5-7-3-|
--7---------------------|--5---------------------|--5---------------------|



-----7-----7----7-------|-----7-----7----7-------|-----5-----5----5-------|
------------------------|------------------------|------------------------|
-------7-9---9----7-9-5-|-------7-9---9----7-9-5-|-------5-7---7----5-7-3-|
--7---------------------|--7---------------------|--5---------------------|



-----5-----5----5-------|-----7-----7----7-------|-----7-----7----7-------|
------------------------|------------------------|------------------------|
-------5-7---7----5-7-3-|-------7-9---9----7-9-5-|-------7-9---9----7-9-5-|
--5---------------------|--7---------------------|--7---------------------|



-----5-----5----5-------|-----5-----5----5-------|-----7-----7----7-------|
------------------------|------------------------|------------------------|
-------5-7---7----5-7-3-|-------5-7---7----5-7-3-|-------7-9---9----7-9-5-|
--5---------------------|--5---------------------|--7---------------------|



-----7-----7----7-------|--------------------------------|
------------------------|--------------------------------|
-------7-9---9----7-9-5-|--------------------------------|
--7---------------------|--0-0-0-0-0-0-0-0-0-0-0-0-1-1-1-|



--------------------------------|--------------------------------|
--------------------------------|--------------------------------|
--------------------------------|--------------------------------|
--0-0-0-0-0-0-0-0-0-0-0-0-1-1-1-|--0-0-0-0-0-0-0-0-0-0-0-0-1-1-1-|



--------------------------------|--9-10-9-7-9-7-----------------|
--------------------------------|---------------10-12-10-9------|
--------------------------------|--------------------------10-7-|
--0-0-0-0-0-0-0-0-0-0-0-0-1-1-1-|-------------------------------|



--9-10-9-7-9-7-----------------|--9-10-9-7-9-7-----------------|
---------------10-12-10-9------|---------------10-12-10-9------|
--------------------------10-7-|--------------------------10-7-|
-------------------------------|-------------------------------|



--9-10-9-7-9-7-----------------|-----------------------|-----------------------|
---------------10-12-10-9------|-----------------------|-----------------------|
--------------------------10-7-|-----------------------|-----------------------|
-------------------------------|--0--0-0--0-0--0-1-0-1-|--0--0-0--0-0--0-1-1-1-|



-----------------------|---------------|--------------|------------------|
-----------------------|---------------|--------------|------------------|
-----------------------|---------------|--------------|------------------|
--0--0-0--0-0--0-1-0-1-|--0------------|--------------|------------------|



------------------|--------------------------|--------------------|
------------------|--------------------------|--------------------|
------------------|--7---5-7--8--7---7-12----|--11----------------|
------------------|--------------------------|--------------------|



--------------------------|--------------------|--------------------------|
--------------------------|--------------------|--------------------------|
--7---5-7--8--7---7-12----|--11----------------|--7---5-7--8--7---7-12----|
--------------------------|--------------------|--------------------------|



--------------------|--------------------------|--------------------|
--------------------|--------------------------|--------------------|
--11----------------|--7---5-7--8--7---7-12----|--11----------------|
--------------------|--------------------------|--------------------|



--------------------------|--------------------|--------------------------|
--------------------------|--------------------|--------------------------|
--7---5-7--8--7---7-12----|--11----------------|--7---5-7--8--7---7-12----|
--------------------------|--------------------|--------------------------|



--------------------|---------------------|---------4-------------|
--------------------|---------------------|-------6----6----------|
--11----------------|---------------------|-----6-----------------|
--------------------|--7-------7-7--------|--4--------------------|



--------------------------|-------------------|--------------------------|
------9----------9-11-----|-------------------|------------------9-------|
----9---9------9----------|-------------------|----------------9---9-----|
--7-----------------------|--4----------------|--7-------7-9-7-----------|



---------4-------------|--------------------|---------4-------------|
-------6----6----------|--------------------|-------6----6----------|
-----6-----------------|------9-------------|-----6-----------------|
--4--------------------|--7-----------------|--4--------------------|



---------------------|---------------------|---------------------|
---------------------|---------------------|---------------------|
---------------------|---------------------|---------------------|
--5----5--4----------|--2----2--4----------|--5----5--4----------|



---------------------|---------------------------|
---------------------|---------------------------|
---------------------|---------------------------|
--2----2--4----------|--5----5--4----4-4-4-4-4-4-|



------------------------------|----------------------------------|
------------------------------|----------------------------------|
------------------------------|----------------------------------|
--2----2--4-4-4-4-4-4-4-4-4-4-|--5-5-5-5-5-5-4-4-4-4-4-4-4-4-4-4-|



----------------------------------|----------------------------------|
----------------------------------|----------------------------------|
----------------------------------|----------------------------------|
--2-2-2-2-2-2-4-4-4-4-4-4-4-4-4-4-|--5-5-5-5-5-5-4-4-4-4-4-4-4-4-4-4-|



----------------------------------|----------------------------------|
----------------------------------|----------------------------------|
----------------------------------|----------------------------------|
--2-2-2-2-2-2-4-4-4-4-4-4-4-4-4-4-|--5-5-5-5-5-5-4-4-4-4-4-4-4-4-4-4-|



----------------------------------|----------------------------------|
----------------------------------|----------------------------------|
----------------------------------|----------------------------------|
--2-2-2-2-2-2-4-4-4-4-4-4-4-4-4-4-|--5-5-5-5-5-5-4-4-4-4-4-4-4-4-4-4-|



----------------------------------|----------------------------------|
----------------------------------|----------------------------------|
----------------------------------|----------------------------------|
--2-2-2-2-2-2-4-4-4-4-4-4-4-4-4-4-|--5-5-5-5-5-5-4-4-4-4-4-4-4-4-4-4-|



----------------------------------|----------------------------------|
----------------------------------|----------------------------------|
----------------------------------|----------------------------------|
--2-2-2-2-2-2-4-4-4-4-4-4-4-4-4-4-|--5-5-5-5-5-5-4-4-4-4-4-4-4-4-4-4-|



----------------------------------|----------------------------------|
----------------------------------|----------------------------------|
----------------------------------|----------------------------------|
--2-2-2-2-2-2-4-4-4-4-4-4-4-4-4-4-|--5-5-5-5-5-5-4-4-4-4-4-4-4-4-4-4-|



----------------------------------|----------------------------------|
----------------------------------|----------------------------------|
----------------------------------|----------------------------------|
--2-2-2-2-2-2-4-4-4-4-4-4-4-4-4-4-|--5-5-5-5-5-5-4-4-4-4-4-4-4-4-4-4-|



----------------------------------|----------------------------------|
----------------------------------|----------------------------------|
----------------------------------|----------------------------------|
--2-2-2-2-2-2-4-4-4-4-4-4-4-4-4-4-|--5-5-5-5-5-5-4-4-4-4-4-4-4-4-4-4-|



----------------------------------|----------------------------------|
----------------------------------|----------------------------------|
----------------------------------|----------------------------------|
--2-2-2-2-2-2-4-4-4-4-4-4-4-4-4-4-|--5-5-5-5-5-5-4-4-4-4-4-4-4-4-4-4-|



----------------------------------|----------------------------------|
----------------------------------|----------------------------------|
----------------------------------|----------------------------------|
--2-2-2-2-2-2-4-4-4-4-4-4-4-4-4-4-|--5-5-5-5-5-5-4-4-4-4-4-4-4-4-4-4-|



----------------------------------|----------------------------------|
----------------------------------|----------------------------------|
----------------------------------|----------------------------------|
--2-2-2-2-2-2-4-4-4-4-4-4-4-4-4-4-|--5-5-5-5-5-5-4-4-4-4-4-4-4-4-4-4-|



----------------------------------|----------------------------------|
----------------------------------|----------------------------------|
----------------------------------|----------------------------------|
--2-2-2-2-2-2-4-4-4-4-4-4-4-4-4-4-|--5-5-5-5-5-5-4-4-4-4-4-4-4-4-4-4-|



----------------------------------|----------------------------------|
----------------------------------|----------------------------------|
----------------------------------|----------------------------------|
--2-2-2-2-2-2-4-4-4-4-4-4-4-4-4-4-|--5-5-5-5-5-5-4-4-4-4-4-4-4-4-4-4-|



----------------------------------|----------------------------------|
----------------------------------|----------------------------------|
----------------------------------|----------------------------------|
--2-2-2-2-2-2-4-4-4-4-4-4-4-4-4-4-|--5-5-5-5-5-5-4-4-4-4-4-4-4-4-4-4-|



----------------------------------|----------------------------------|
----------------------------------|----------------------------------|
----------------------------------|----------------------------------|
--2-2-2-2-2-2-4-4-4-4-4-4-4-4-4-4-|--5-5-5-5-5-5-4-4-4-4-4-4-4-4-4-4-|



----------------------------------|----------------------------------|
----------------------------------|----------------------------------|
----------------------------------|----------------------------------|
--2-2-2-2-2-2-4-4-4-4-4-4-4-4-4-4-|--5-5-5-5-5-5-4-4-4-4-4-4-4-4-4-4-|



----------------------------------|----------------------------------|
----------------------------------|----------------------------------|
----------------------------------|----------------------------------|
--2-2-2-2-2-2-4-4-4-4-4-4-4-4-4-4-|--5-5-5-5-5-5-4-4-4-4-4-4-4-4-4-4-|



----------------------------------|----------------------------------|
----------------------------------|----------------------------------|
----------------------------------|----------------------------------|
--2-2-2-2-2-2-4-4-4-4-4-4-4-4-4-4-|--5-5-5-5-5-5-4-4-4-4-4-4-4-4-4-4-|



----------------------------------|----------------------------------|
----------------------------------|----------------------------------|
----------------------------------|----------------------------------|
--2-2-2-2-2-2-4-4-4-4-4-4-4-4-4-4-|--5-5-5-5-5-5-4-4-4-4-4-4-4-4-4-4-|



----------------------------------|----------------------------------|
----------------------------------|----------------------------------|
----------------------------------|----------------------------------|
--2-2-2-2-2-2-4-4-4-4-4-4-4-4-4-4-|--5-5-5-5-5-5-4-4-4-4-4-4-4-4-4-4-|



----------------------------------|----------------------------------|
----------------------------------|----------------------------------|
----------------------------------|----------------------------------|
--2-2-2-2-2-2-4-4-4-4-4-4-4-4-4-4-|--5-5-5-5-5-5-4-4-4-4-4-4-4-4-4-4-|



----------------------------------|----------------------------------|
----------------------------------|----------------------------------|
----------------------------------|----------------------------------|
--2-2-2-2-2-2-4-4-4-4-4-4-4-4-4-4-|--5-5-5-5-5-5-4-4-4-4-4-4-4-4-4-4-|



----------------------------------|----------------------------------|
----------------------------------|----------------------------------|
----------------------------------|----------------------------------|
--2-2-2-2-2-2-4-4-4-4-4-4-4-4-4-4-|--5-5-5-5-5-5-4-4-4-4-4-4-4-4-4-4-|



-----------------------------|---||
-----------------------------|---||
-----------------------------|---||
--2-2-2-2-2-2-4-4-4-4-4------|---||
  development and support by
dmitry ivanov