rock
 
|tablatures   |lyrics   |discussion forums   |more tabs @ XGuitar.com

Iced Earth tabs

Brainwashed bass tab

Tune Down

F#||------------------|---------------------|-------------------|
C#||------------------|---------------------|-------------------|
G#||------------------|----------3--2-------|-------------------|
D#||------------------|----------------3----|--0----------------|



----------5--4-------|-------------------|---------------------|
----------------5----|--2----------------|---------------------|
---------------------|-------------------|----------3--2-------|
---------------------|-------------------|----------------3----|



-------------------|---------------------|---------------------------|
-------------------|---------------------|--------2--2-3----2-----2--|
-------------------|----------3--2-------|-----2---------------3-----|
--0----------------|----------------3----|--0------------------------|



---------------------------|---------------------------|
--------2--2-3----2-----1--|--------2--2-3----2-----2--|
-----2---------------1-----|-----2---------------3-----|
--0------------------------|--0------------------------|



---------------------------|---------------------------|
--------2--2-3----2-----1--|--------2--2-3----2-----2--|
-----2---------------1-----|-----2---------------3-----|
--0------------------------|--0------------------------|



---------------------------|---------------------------|
--------2--2-3----2-----1--|--------2--2-3----2-----2--|
-----2---------------1-----|-----2---------------3-----|
--0------------------------|--0------------------------|



---------------------------|-------------------------|
--------2--2-3----2-----1--|-------------------------|
-----2---------------1-----|-------------------------|
--0------------------------|--0--0-0-0--1----1--0----|



---------------------------|-------------------------|
---------------------------|-------------------------|
------------1----1-1-1-----|-------------------------|
--0--0-0-0--------------1--|--0--0-0-0--1----1--0----|



---------------------------|-------------------------|
---------------------------|-------------------------|
------------1----1-1-1-----|-------------------------|
--0--0-0-0--------------1--|--0--0-0-0--1----1--0----|



---------------------------|-------------------------|
---------------------------|-------------------------|
------------1----1-1-1-----|-------------------------|
--0--0-0-0--------------1--|--0--0-0-0--0----0--0----|



---------------------------|----------------------|-------------------------|
---------------------------|----------------------|-------------------------|
------------1----1-1-1-----|----------------------|-------------------------|
--0--0-0-0--------------1--|--0----0--------0--0--|------0------0-0-2-3-2-3-|



----------------------|-------------------------|----------------------|
----------------------|-------------------------|----------------------|
----------------------|-------------------------|----------------------|
--0----0--------0--0--|------0------0-0-2-3-2-3-|--0----0--------0--0--|



-------------------------|---------------------|-------------------------|
-------------------------|---------------------|-------------------------|
-------------------------|---------------------|-------------------------|
------0------0-0-2-3-2-3-|--0----0--------0----|--0----------0-0-2-3-2-3-|



----------------------------------|-------------------------------|
----------------------------------|-------------------------------|
----------------------------------|-------------------------------|
--0-0-0-0-3-0-0-0-2-0-0-5-0-0-3-0-|--2-2-2-2-2--2-2-2-2-2--2-2-2--|



----------------------------------|-------------------------------|
----------------------------------|-------------------------------|
----------------------------------|-------------------------------|
--0-0-0-0-3-0-0-0-2-0-0-5-0-0-3-0-|--1-1-1-1-1--1-1-1-1-1--1-1-1--|



----------------------------------|-------------------------------|
----------------------------------|-------------------------------|
----------------------------------|-------------------------------|
--0-0-0-0-3-0-0-0-2-0-0-5-0-0-3-0-|--2-2-2-2-2--2-2-2-2-2--2-2-2--|



----------------------------------|-------------------------------|
----------------------------------|-------------------------------|
----------------------------------|-------------------------------|
--0-0-0-0-3-0-0-0-2-0-0-5-0-0-3-0-|--1-1-1-1-1--1-1-1-1-1--1-1-1--|



----------------------|-------------------------|----------------------|
----------------------|-------------------------|----------------------|
----------------------|-------------------------|----------------------|
--0----0--------0--0--|------0------0-0-2-3-2-3-|--0----0--------0--0--|



-------------------------|----------------------|-------------------------|
-------------------------|----------------------|-------------------------|
-------------------------|----------------------|-------------------------|
------0------0-0-2-3-2-3-|--0----0--------0--0--|------0------0-0-2-3-2-3-|



---------------------|-------------------------|
---------------------|-------------------------|
---------------------|-------------------------|
--0----0--------0----|--0----------0-0-2-3-2-3-|



----------------------------------|-------------------------------|
----------------------------------|-------------------------------|
----------------------------------|-------------------------------|
--0-0-0-0-3-0-0-0-2-0-0-5-0-0-3-0-|--2-2-2-2-2--2-2-2-2-2--2-2-2--|



----------------------------------|-------------------------------|
----------------------------------|-------------------------------|
----------------------------------|-------------------------------|
--0-0-0-0-3-0-0-0-2-0-0-5-0-0-3-0-|--1-1-1-1-1--1-1-1-1-1--1-1-1--|



----------------------------------|-------------------------------|
----------------------------------|-------------------------------|
----------------------------------|-------------------------------|
--0-0-0-0-3-0-0-0-2-0-0-5-0-0-3-0-|--2-2-2-2-2--2-2-2-2-2--2-2-2--|



----------------------------------|-------------------------------|
----------------------------------|-------------------------------|
----------------------------------|-------------------------------|
--0-0-0-0-3-0-0-0-2-0-0-5-0-0-3-0-|--1-1-1-1-1--1-1-1-1-1--1-1-1--|



----------------------------|----------------------------|
----------------------------|----------------------------|
----------------------------|----------------------------|
--0--0-0-0--0--0-0-0--0--0--|--3--3-3-3--3--3-3-3--3--3--|



----------------------------|----------------------------|
----------------------------|----------------------------|
----------------------------|----------------------------|
--2--2-2-2--2--2-2-2--3--2--|--0--0-0-0--0--0-0-0--0--0--|



----------------------------|----------------------------|
----------------------------|----------------------------|
----------------------------|----------------------------|
--0--0-0-0--0--0-0-0--0--0--|--3--3-3-3--3--3-3-3--3--3--|



----------------------------|----------------------------|-------------------|
----------------------------|----------------------------|-------------------|
----------------------------|----------------------------|-------------------|
--2--2-2-2--2--2-2-2--3--2--|--0--0-0-0--0--0-0-0--0--0--|--0----------------|



-------------------|-------------------|-------------------|-------------------|
-------------------|-------------------|-------------------|-------------------|
-------------------|-------------------|-------------------|-------------------|
--3----------------|--1----------------|--2----------------|--0----------------|



-------------------|-------------------|-------------------|-------------------|
-------------------|-------------------|-------------------|-------------------|
-------------------|-------------------|-------------------|-------------------|
--3----------------|--1----------------|--2----------------|--0----------------|



-------------------|-------------------|-------------------|-------------------|
-------------------|-------------------|-------------------|-------------------|
-------------------|-------------------|-------------------|-------------------|
--3----------------|--1----------------|--2----------------|--0----------------|



-------------------|-------------------|-------------------|
-------------------|-------------------|-------------------|
-------------------|-------------------|-------------------|
--3----------------|--1----------------|--2----------------|



------------------------|---------------------------|------------------------|
------------------------|---------------------------|------------------------|
------------------------|---------------------------|------------------------|
--0--0-0-0--2--0--------|--0--0-0-0--2--0--0--2--3--|--0--0-0-0--2--0--------|



---------------------------|------------------------|
---------------------------|------------------------|
---------------------------|------------------------|
--0--0-0-0--2--0--0--2--3--|--0--0-0-0--2--0--------|



---------------------------|------------------------|
---------------------------|------------------------|
---------------------------|------------------------|
--0--0-0-0--2--0--0--2--3--|--0--0-0-0--2--0--------|



---------------------------|------------------------|------------------------|
---------------------------|------------------------|------------------------|
---------------------------|------------------------|------------------------|
--0--0-0-0--2--0--0--2--3--|--0--0-0-0--3--2--------|--2--2-2-2--2--1--------|



------------------------|---------------------------|------------------------|
------------------------|---------------------------|------------------------|
------------------------|---------------------------|------------------------|
--0--0-0-0--2--0--------|--0--0-0-0--2--0--0--2--3--|--0--0-0-0--2--0--------|



---------------------------|------------------------|------------------------|
---------------------------|------------------------|------------------------|
---------------------------|------------------------|------------------------|
--0--0-0-0--2--0--0--2--3--|--0--0-0-0--3--2--------|--2--2-2-2--2--1--------|



------------------------|---------------------------|------------------------|
------------------------|---------------------------|------------------------|
------------------------|---------------------------|------------------------|
--0--0-0-0--2--0--------|--0--0-0-0--2--0--0--2--3--|--0--0-0-0--2--0--------|



---------------------------|------------------------|------------------------|
---------------------------|------------------------|------------------------|
---------------------------|------------------------|------------------------|
--0--0-0-0--2--0--0--2--3--|--0--0-0-0--3--2--------|--2--2-2-2--2--1--------|



------------------------|---------------------------|------------------------|
------------------------|---------------------------|------------------------|
------------------------|---------------------------|------------------------|
--0--0-0-0--2--0--------|--0--0-0-0--2--0--0--2--3--|--0--0-0-0--2--0--------|



---------------------------|------------------------|------------------------|
---------------------------|------------------------|------------------------|
---------------------------|------------------------|------------------------|
--0--0-0-0--2--0--0--2--3--|--0--0-0-0--3--2--------|--2--2-2-2--2--1--------|



------------------------|---------------------------|------------------------|
------------------------|---------------------------|------------------------|
------------------------|---------------------------|------------------------|
--0--0-0-0--2--0--------|--0--0-0-0--2--0--0--2--3--|--0--0-0-0--3--2--------|



------------------------|-------------------------|------------------|
------------------------|-------------------------|------------------|
------------------------|-------------------------|------------------|
--2--2-2-2--2--1--------|--0-0-0-0-2--0--0--------|------------------|



------------------|------------------|-------------------|-------------------|
------------------|------------------|-------------------|-------------------|
------------------|------------------|--------------5----|----------3--------|
------------------|------------------|-------------------|-------------------|



-------------------|------|------|------|-------------------------------|
-------------------|------|------|------|-------------------------------|
-------------------|------|------|------|-------------------------------|
--0----------------|------|------|------|--0--0-0-0-0-0--0-0-0-0-0--0-0-|



---------------------------------|-----------------------------|
---------------------------------|-----------------------------|
---------------------------------|------------------------5----|
--0-0-0--0-0-0-0-3-3-3-3-2-2-2-2-|--0--0-0-0-0-0--0-0-0-0------|



-------------------|-------------------------------|
-------------------|-------------------------------|
----------3--------|-------------------------------|
-------------------|--0--0-0-0-0-0--0-0-0-0-0--0-0-|



---------------------------------|-----------------------------|
---------------------------------|-----------------------------|
---------------------------------|------------------------5----|
--0-0-0--0-0-0-0-3-3-3-3-2-2-2-2-|--0--0-0-0-0-0--0-0-0-0------|



-------------------|-------------------------------|
-------------------|-------------------------------|
----------3--------|-------------------------------|
-------------------|--0--0-0-0-0-0--0-0-0-0-0--0-0-|



---------------------------------|-----------------------------|
---------------------------------|-----------------------------|
---------------------------------|------------------------5----|
--0-0-0--0-0-0-0-3-3-3-3-2-2-2-2-|--0--0-0-0-0-0--0-0-0-0------|



-------------------|-------------------------------|
-------------------|-------------------------------|
----------3--------|-------------------------------|
-------------------|--0--0-0-0-0-0--0-0-0-0-0--0-0-|



---------------------------------|-----------------------------|
---------------------------------|-----------------------------|
---------------------------------|------------------------5----|
--0-0-0--0-0-0-0-3-3-3-3-2-2-2-2-|--0--0-0-0-0-0--0-0-0-0------|



-------------------|---------------------|----------------------|
-------------------|---------------------|----------------------|
----------3--------|---------------------|----------------------|
-------------------|--0------0------0----|----0------3----2--3--|



---------------------|-------------------|---------------------|
---------------------|-------------------|---------------------|
----------------5----|----------3--------|---------------------|
--0------0-----------|-------------------|--0------0------0----|



----------------------|---------------------|-------------------|
----------------------|---------------------|-------------------|
----------------------|----------------5----|----------3--------|
----0------3----2--3--|--0------0-----------|-------------------|



-------------------|------------------|------------------|
-------------------|------------------|------------------|
-------------------|------------------|------------------|
--0----------------|------------------|------------------|



-------------------------|-------------------|-------------------|
-------------------------|-------------------|-------------------|
--5--5--5--5--5--5--3----|-------------------|-------------------|
-------------------------|--0----------------|--1----------------|



-------------------|-------------------------|-------------------|
-------------------|-------------------------|-------------------|
-------------------|--5--5--5--5--5--5--3----|-------------------|
--0----------------|-------------------------|--0----------------|



-------------------|-------------------|-------------------------|
-------------------|-------------------|-------------------------|
-------------------|-------------------|--5--5--5--5--5--5--3----|
--1----------------|--0----------------|-------------------------|



-------------------|-------------------|-------------------|
-------------------|-------------------|-------------------|
-------------------|-------------------|-------------------|
--0----------------|--1----------------|--0----------------|



-------------------------|-------------------|-------------------|
-------------------------|-------------------|-------------------|
--5--5--5--5--5--5--3----|-------------------|-------------------|
-------------------------|--0----------------|--1----------------|



-------------------|-------------------------|-------------------|
-------------------|-------------------------|-------------------|
-------------------|--5--5--5--5--5--5--3----|-------------------|
--0----------------|-------------------------|--0----------------|



-------------------|-------------------|-------------------------|
-------------------|-------------------|-------------------------|
-------------------|-------------------|--5--5--5--5--5--5--3----|
--1----------------|--0----------------|-------------------------|



---------------------|----------------------|---------------------|
---------------------|----------------------|---------------------|
---------------------|----------------------|---------------------|
--0------------0--0--|--1----------1--3--1--|--0------------0--0--|



--------------------------|---------------------|----------------------|
--------------------------|---------------------|----------------------|
--5--5-5-5--5--5--5--3----|---------------------|----------------------|
--------------------------|--0------------0--0--|--1----------1--3--1--|



---------------------|--------------------------|----------------------------|
---------------------|--------------------------|----------------------------|
---------------------|--5--5-5-5--5--5--5--3----|----------------------------|
--0------------0--0--|--------------------------|--0--0-0-0--0--0-0-0--0--0--|



----------------------------|----------------------------|
----------------------------|----------------------------|
----------------------------|----------------------------|
--3--3-3-3--3--3-3-3--3--3--|--2--2-2-2--2--2-2-2--3--2--|



----------------------------|----------------------------|
----------------------------|----------------------------|
----------------------------|----------------------------|
--0--0-0-0--0--0-0-0--0--0--|--0--0-0-0--0--0-0-0--0--0--|



----------------------------|----------------------------|
----------------------------|----------------------------|
----------------------------|----------------------------|
--3--3-3-3--3--3-3-3--3--3--|--2--2-2-2--2--2-2-2--3--2--|



----------------------------|-------------------|-------------------|
----------------------------|-------------------|-------------------|
----------------------------|-------------------|-------------------|
--0--0-0-0--0--0-0-0--0--0--|--0----------------|--3----------------|



-------------------|-------------------|-------------------|-------------------|
-------------------|-------------------|-------------------|-------------------|
-------------------|-------------------|-------------------|-------------------|
--1----------------|--2----------------|--0----------------|--3----------------|



-------------------|-------------------|-------------------|-------------------|
-------------------|-------------------|-------------------|-------------------|
-------------------|-------------------|-------------------|-------------------|
--1----------------|--2----------------|--0----------------|--3----------------|



-------------------|-------------------|-------------------|-------------------|
-------------------|-------------------|-------------------|-------------------|
-------------------|-------------------|-------------------|-------------------|
--1----------------|--2----------------|--0----------------|--3----------------|



-------------------|-------------------|----------------------------|
-------------------|-------------------|----------------------------|
-------------------|-------------------|----------------------------|
--1----------------|--2----------------|--0--0-0-0--0--0-0-0--0--0--|



----------------------------|-------------------|------------------||
----------------------------|-------------------|------------------||
----------------------------|-------------------|------------------||
--0--0-0-0--0--0-0-0-0-1----|--0----------------|------------------||
  development and support by
dmitry ivanov