rock
 
|tablatures   |lyrics   |discussion forums   |more tabs @ XGuitar.com

Iced Earth tabs

Blood on My Hands bass tab

Demons&Wizards
Blood  on  my  Hands
from Demons&Wizards by  Kursh, Schaffer
Transcripted by Stefano Lopez (bloch@ciaoweb.it)

FIND EVERY ICED EARTH SONG AND
THE MOST UPDATED VERSION OF THIS SONG AT:

                          The Frozen Palace
                  http://abysslord.com/icedearth/
  
PLEASE DO NOT COPY THIS TAB TO ANOTHER SITE 
WITHOUT AUTHORS' PERMISSION.  THANK YOU.

Tune  step down

Intro 
G|-----------------------------------------------------------------|X6
D|-----------------------------------------------------------------|
A|-----------------------------------------------------------------|
E|-000-000-000-000-000-000-000-000-000-000-000-000-000-000-000-000-|
 |
G|-------------||
D|-------------||
A|-------------||
E|-3-2-0-2-3-2-||
 
Riff 1
G|------------------------------------------------------|
D|------------------------------------------------------|
A|----------7----------------------------7--------------|
E|-0--0-000----0-0-0-3-2-0-2-3-2-0-0-000----0-0-0-3-2-0-|
 |
G|-----------------------------||
D|-----------------------------||
A|-------3----------5----------||
E|-2-3-2------0-2-3------5-3-2-||

Verse 1 
G|-------------------------------------------------------------------------|
D|-------------------------------------------------------------------------|
A|----------7-----------------------------7-----------------------------7--|
E|-0--0-000----0-0-0-3\2-0-2-3-2-0--0-000----0-0-0-3\2-0-2-3-2-0--0-000----|
 |
G|------------------------------------------------------------------------||
D|------------------------------------------------------------------------||
A|-------------------3-----------5--------------------7-------------------||
E|-0-0-0-3\2-0-2-3-2-------0-2-3-------5-3-2-0--0-000---0-0-0-3\2-0-2-3-2-||

Verse 2 x2
G|-------------------------------------------------|
D|-------------------------------------------------|
A|-7-7-7-7-7-7-7-7-5--5-5-5-5-5-5-3--3-3-3-3-3-3---|
E|-------------------------------------------------|
 |
G|-------------------------------------------------||End of verse 2
D|-------------------------------------------------||
A|-------2-------------------7---------------------||
E|-0-2-3------5-3-2-0--0-000---0-0-0-3\2-0-2-3-2---||

Pre-chorus x2
G|------------------------------------------------------------------------||
D|------------------------------------------------------------------------||
A|-7-7-7-7-7-7-7-7-7-3-3-3-3-3-3-3-5-5-5-5-5-5-5-5-5----------------------||
E|-----------------------------------------------------3--3--5--5---5-3-5-||

Chorus x2
G|----------------------------------------------------------------------|
D|----------------------------------------------------------------------|
A|-7-7-7-7-7-7-7-7--7--5-5-5-5-5-5-5-5--5--3-3-3-3-3--3--2-2-2-2-2--2---|
E|----------------------------------------------------------------------|
G|-------------------------------------||End of Chorus
D|-------------------------------------||
A|-------------------------------------||
E|-0-0-0-0-0-0-0-0-0--3--2--0--2--3--2-||
    
Post-chorus 
G|------------------------------------------------------|
D|------------------------------------------------------|
A|----------7----------------------------7--------------|
E|-0--0-000----0-0-0-3-2-0-2-3-2-0-0-000----0-0-0-3-2-0-|
 |
G|-----------------------------||
D|-----------------------------||
A|-------3----------5----------||
E|-2-3-2------0-2-3------5-3-2-||    

Pre-verse 
G|-------------------------------------------------------------------------|
D|-------------------------------------------------------------------------|
A|----------7-----------------------------7-----------------------------7--|
E|-0--0-000----0-0-0-3\2-0-2-3-2-0--0-000----0-0-0-3\2-0-2-3-2-0--0-000----|
 |
G|------------------------------------------------------------------------||
D|------------------------------------------------------------------------||
A|-------------------3-----------5--------------------7-------------------||
E|-0-0-0-3\2-0-2-3-2-------0-2-3-------5-3-2-0--0-000---0-0-0-3\2-0-2-3-2-||

Verse 3 x2
G|-----------------------------------------------|
D|-----------------------------------------------|
A|-7-7-7-7-7-7-7-7-5-5-5-5-5-5-5-3-3-3-3-3-3-3---|
E|-----------------------------------------------|
 |
G|-------------------------------------------------||End of verse 3
D|-------------------------------------------------||
A|-------2-------------------7---------------------||
E|-0-2-3------5-3-2-0--0-000---0-0-0-3\2-0-2-3-2---||

Pre-chorus x2
G|------------------------------------------------------------------------||
D|------------------------------------------------------------------------||
A|-7-7-7-7-7-7-7-7-7-3-3-3-3-3-3-3-5-5-5-5-5-5-5-5-5----------------------||
E|-----------------------------------------------------3--3--5--5---5-3-5-||

Chorus x2
G|----------------------------------------------------------------------|
D|----------------------------------------------------------------------|
A|-7-7-7-7-7-7-7-7--7--5-5-5-5-5-5-5-5--5--3-3-3-3-3--3--2-2-2-2-2--2---|
E|----------------------------------------------------------------------|
 |
G|-------------------------------------||End of Chorus
D|-------------------------------------||
A|-------------------------------------||
E|-0-0-0-0-0-0-0-0-0--3--2--0--2--3--2-||

Post-chorus 
G|------------------------------------------------------|
D|------------------------------------------------------|
A|----------7----------------------------7--------------|
E|-0--0-000----0-0-0-3-2-0-2-3-2-0-0-000----0-0-0-3-2-0-|
 |


G|-----------------------------||
D|-----------------------------||
A|-------3----------5----------||
E|-2-3-2------0-2-3------5-3-2-||    

Solo
G|-------------------------------------------------------------------------|
D|-------------------------------------------------------------------------|
A|----------7-----------------------------7-----------------------------7--|
E|-0--0-000----0-0-0-3\2-0-2-3-2-0--0-000----0-0-0-3\2-0-2-3-2-0--0-000----|
 |
G|------------------------------------------------------------------------||
D|------------------------------------------------------------------------||
A|-------------------3-----------5--------------------7-------------------||
E|-0-0-0-3\2-0-2-3-2-------0-2-3-------5-3-2-0--0-000---0-0-0-3\2-0-2-3-2-||

Lead
G|------------------------------------------------------------------|
D|------------------------------------------------------------------|
A|-7-7-7-7-7-7-7-7-7--5-5-5-5-5-5-5-5-5--3-3-3-3-3-3--2-2-2-2-2-2---|
E|------------------------------------------------------------------|
 |
G|-------------------------------------||X2
D|-------------------------------------||
A|-------------------------------------||
E|-0-0-0-0-0-0-0-0-0--3--2--0--2--3--2-||

Pre-chorus x2
G|------------------------------------------------------------------------||
D|------------------------------------------------------------------------||
A|-7-7-7-7-7-7-7-7-7-3-3-3-3-3-3-3-5-5-5-5-5-5-5-5-5----------------------||
E|-----------------------------------------------------3--3--5--5---5-3-5-||

Chorus x2
G|----------------------------------------------------------------------|
D|----------------------------------------------------------------------|
A|-7-7-7-7-7-7-7-7--7--5-5-5-5-5-5-5-5--5--3-3-3-3-3--3--2-2-2-2-2--2---|
E|----------------------------------------------------------------------|
 |
G|-------------------------------------||End of Chorus
D|-------------------------------------||
A|-------------------------------------||
E|-0-0-0-0-0-0-0-0-0--3--2--0--2--3--2-||

Outro 
G|-----------------------------------------------------------------------------|
D|-----------------------------------------------------------------------------|
A|----------7---------------------------7---------------------3--------5-------|
E|-0--0-000---0-0-0-3-2-0-2-3-2-0-0-000----0-0-0-3-2-0--2-3-2----0-2-3----5-3-2|
 |
G|-------------------------------------------------------------------------|
D|-------------------------------------------------------------------------|
A|----------7-----------------------------7-----------------------------7--|
E|-0--0-000----0-0-0-3\2-0-2-3-2-0--0-000----0-0-0-3\2-0-2-3-2-0--0-000----|
 |
G|---------------------------------------------------------------------------||
D|---------------------------------------------------------------------------||
A|-------------------3-----------5--------------------7----------------------||
E|-0-0-0-3\2-0-2-3-2-------0-2-3-------5-3-2-0--0-000---0-0-0-3\2-0-2-3-2--0-||


  development and support by
dmitry ivanov