rock
 
|tablatures   |lyrics   |discussion forums   |more tabs @ XGuitar.com

Iced Earth tabs

Blessed Are You bass tab

ICED EARTH
Blessed Are You
from Something Wicked this Way Comes by Schaffer
Transcripted by Stefano Lopez (toscanino@inwind.it)

FIND EVERY ICED EARTH SONG AND
THE MOST UPDATED VERSION OF THIS SONG AT:

                          The Frozen Palace
                  http://abysslord.com/icedearth/
 
PLEASE DO NOT COPY THIS TAB TO ANOTHER SITE 
WITHOUT AUTHORS' PERMISSION.  THANK YOU.

Tune down  step

Guitar intro and verse 1

Chorus                         X2|                           X2|                 
G|-------------------------------|-----------------------------|
D|-------------------------------|-----------------------------|
A|-5--5-3--5--5-5-5--5-5--0--3---|-1--1-0--1--1-1-1--1-1--1--3-|
E|-------------------------------|-----------------------------|                                                                                                   
 |                             X2|                           X2|                 
G|-------------------------------|-----------------------------|--------||
D|-------------------------------|-----------------------------|--------||
A|-5--5-3--5--5-5-5--5-5--0--3---|-1--1-0--1--1-1-1--1-1--1--3-|---5-r--||
E|-------------------------------|-----------------------------|--------||                                                                                                    

Verse 2

Chorus                         X2|                           X2|                 
G|-------------------------------|-----------------------------||X2
D|-------------------------------|-----------------------------||
A|-5--5-3--5--5-5-5--5-5--0--3---|-1--1-0--1--1-1-1--1-1--1--3-||
E|-------------------------------|-----------------------------||                                                                                                    

Bridge                         x2|                         x2|
G|-------------------------------|---------------------------||X2
D|-------------------------------|---------------------------||
A|--5-5-5-5-5-5-8-5-8-5-8-7-5\---|--1-111-0-1---1-111-1-3-3--||
E|-------------------------------|---------------------------||

Solo x2
G|--------------------------------------------------------------------|
D|--------------------------------------------------------------------|
A|--5-5-5-5-5-5-5-5-5-5-5-5-5-5-5-5--5-5-5-5-5-5-5-5-5-5-5-5-5-5-5555-|
E|--------------------------------------------------------------------|
 |                                                                    |
G|--------------------------------------------------------------------||
D|--------------------------------------------------------------------||
A|--3-3-3-3-3-3-3-3-3-3-3-3-3-3-3-3--3-3-3-3-3-3-3-3-3-3-3-3-3-3-3333-||
E|--------------------------------------------------------------------||
 
Solo ending x2
G|------------------------------------------------------||
D|-------3-------------5--------------------------------||
A|--1-11---1-1-0--3-33---3-3-0--3--5-5--5-5--5\3-3--3-0-||
E|------------------------------------------------------||

Chorus                         X2|                           X2|                 
G|-------------------------------|-----------------------------||X2
D|-------------------------------|-----------------------------||
A|-5--5-3--5--5-5-5--5-5--0--3---|-1--1-0--1--1-1-1--1-1--1--3-||
E|-------------------------------|-----------------------------||                                                                                                    
  development and support by
dmitry ivanov