rock
 
|tablatures   |lyrics   |discussion forums   |more tabs @ XGuitar.com

Iced Earth tabs

Birth of the Wicked bass tab

ICED EARTH
Birth of the Wicked
from Something Wicked this Way Comes by Schaffer
Transcripted by Stefano Lopez (toscanino@inwind.it)

FIND EVERY ICED EARTH SONG AND
THE MOST UPDATED VERSION OF THIS SONG AT:

                          The Frozen Palace
                  http://abysslord.com/icedearth/
  
PLEASE DO NOT COPY THIS TAB TO ANOTHER SITE 
WITHOUT AUTHORS' PERMISSION.  THANK YOU.

Tune down  step

Something Wicked trilogy -second chapter

Intro x4
G|------------------------------------------------||
D|------------------------------------------------||
A|--5-555-5-5--6-666-6-6--8-888-8--8--6-666-6-6---||
E|------------------------------------------------||

Verse 1                            x4|                               
G|-----------------------------------|------------------------------|
D|-----------------------------------|------------------------------|
A|--5-555-5-555-5-555-5-555-5-6-5----|--3-333-3-3-3--6-666-6-6-6----|
E|--------------------------------6--|------------------------------|
 |                                   |
G|-----------------------------------||
D|-----------------------------------||
A|--5-555-5-555-5-555-5-555-5-6-5----||End of verse 1
E|--------------------------------6--||

Verse 2                            x4|                               
G|-----------------------------------|------------------------------|
D|-----------------------------------|------------------------------|
A|--5-555-5-555-5-555-5-555-5-6-5----|--3-333-3-3-3--6-666-6-6-6----|
E|--------------------------------6--|------------------------------|
 |                                   |
G|-----------------------------------||
D|-----------------------------------||
A|--5-555-5-555-5-555-5-555-5-6-5----||End of verse 2
E|--------------------------------6--||

Chorus fig.                x2|                         
G|---------------------------|---------------------------|---------------------------||X2
D|-------8-----5-----7-------|---------------------------|---------------------------||
A|-5-5-5---5-5---5-5---5-5-5-|-3-3-3-3-3-3-3-3-3-3-3-3-3-|-1-1-1-1-1-1-1-1-1-1-1-6-6-||
E|---------------------------|---------------------------|---------------------------||

Verse 3                            x4|                               
G|-----------------------------------|------------------------------|
D|-----------------------------------|------------------------------|
A|--5-555-5-555-5-555-5-555-5-6-5----|--3-333-3-3-3--6-666-6-6-6----|
E|--------------------------------6--|------------------------------|
 |                                   |
G|-----------------------------------||
D|-----------------------------------||
A|--5-555-5-555-5-555-5-555-5-6-5----||End of verse 3
E|--------------------------------6--||

Verse 4                            x4|                               
G|-----------------------------------|------------------------------|
D|-----------------------------------|------------------------------|
A|--5-555-5-555-5-555-5-555-5-6-5----|--3-333-3-3-3--6-666-6-6-6----|
E|--------------------------------6--|------------------------------|
 |                                   |
G|-----------------------------------||
D|-----------------------------------||
A|--5-555-5-555-5-555-5-555-5-6-5----||End of verse 4
E|--------------------------------6--||
Chorus                     x2|                         
G|---------------------------|---------------------------|---------------------------||X2
D|-------8-----5-----7-------|---------------------------|---------------------------||
A|-5-5-5---5-5---5-5---5-5-5-|-3-3-3-3-3-3-3-3-3-3-3-3-3-|-1-1-1-1-1-1-1-1-1-1-1-6-6-||
E|---------------------------|---------------------------|---------------------------||

Bridge
G|--------|--------|-----------|--------||
D|--------|--------|-----------|--------||
A|--5-----|----5---|--5--5--5--|----5-r-||
E|--------|--6-----|-----------|--6-----||

Solo
G|---------------------------------------------------------------------|X2
D|-----------------------------------------------------------6h7-6~~---|
A|--5-555-5-555-5-555-5-555-5-6-5----5-555-5-555-555-5---5-6-----------|
E|--------------------------------6--------------------8---------------|
 |
G|-----------------------|
D|-----------------------|
A|-3-333-3-3--6-666-6-6--|
E|-----------------------|
 |
G|---------------------------------------------------------------------|X2
D|-----------------------------------------------------------6h7-6~~---|
A|--5-555-5-555-5-555-5-555-5-6-5----5-555-5-555-555-5---5-6-----------|
E|--------------------------------6--------------------8---------------|
 |
D|----------------------------------------------------||X2
G|----------------------------------------------------||End of Solo
A|--3-333-3-3--6-666-6-6-5-555-5-555-5-5-5-5-5-5-5-5--||
E|----------------------------------------------------||

Intro x2
G|------------------------------------------------||
D|------------------------------------------------||
A|--5-555-5-5--6-666-6-6--8-888-8--8--6-666-6-6---||
E|------------------------------------------------||

Verse 5                            x4|                               
G|-----------------------------------|------------------------------|
D|-----------------------------------|------------------------------|
A|--5-555-5-555-5-555-5-555-5-6-5----|--3-333-3-3-3--6-666-6-6-6----|
E|--------------------------------6--|------------------------------|
 |                                   |
G|-----------------------------------||
D|-----------------------------------||
A|--5-555-5-555-5-555-5-555-5-6-5----||End of verse 3
E|--------------------------------6--||

Verse 6                            x4|                               
G|-----------------------------------|------------------------------|
D|-----------------------------------|------------------------------|
A|--5-555-5-555-5-555-5-555-5-6-5----|--3-333-3-3-3--6-666-6-6-6----|
E|--------------------------------6--|------------------------------|
 |                                   |
G|-----------------------------------||
D|-----------------------------------||
A|--5-555-5-555-5-555-5-555-5-6-5----||End of verse 3
E|--------------------------------6--||




Chorus                     x2|                         
G|---------------------------|---------------------------|---------------------------||X4
D|-------8-----5-----7-------|---------------------------|---------------------------||
A|-5-5-5---5-5---5-5---5-5-5-|-3-3-3-3-3-3-3-3-3-3-3-3-3-|-1-1-1-1-1-1-1-1-1-1-1-6-6-||
E|---------------------------|---------------------------|---------------------------||

Outro
G|------------------------------------------------|X2
D|------------------------------------------------|
A|--5-555-5-5--6-666-6-6--8-888-8--8--6-666-6-6---|
E|------------------------------------------------|
 |
G|--------||
D|--------||
A|-3-5\---||
E|--------||



  development and support by
dmitry ivanov