rock
 
|tablatures   |lyrics   |discussion forums   |more tabs @ XGuitar.com

Iced Earth tabs

Angels Holocaust bass tab

Iced Earth
Angels Holocaust
from Night of the Stormrider & Days of Purgatoy by Schaffer
Transcripted by Stefano Lopez (toscanino@inwind.it)

FIND EVERY ICED EARTH SONG AND
THE MOST UPDATED VERSION OF THIS SONG AT:

                          The Frozen Palace
                  http://abysslord.com/icedearth/
  
PLEASE DO NOT COPY THIS TAB TO ANOTHER SITE 
WITHOUT AUTHORS' PERMISSION.  THANK YOU.

Tune down  step

Intro                  X2|
G|-----------------------|-----------------------------||X4
D|-----------------------|-----------------------------||
A|-----------------------|-----------------------------||
E|-0-0-------------------|-0-0-------------------------||

Riff 1 x2
G|------------------------------------------------------|
D|------------------------------------------------------|
A|-7--7-7-7--7-7-7--7--7-8-7----------------------------|
E|----------------------------7--7-7-7--7-7-7--7--7-8-7-|
 |
G|-------------------------------------------------------||
D|-------------------------------------------------------||
A|-5--5-5-5--5-5-5--5--5-6-5--7-7-7--8-7-77--8-7-77--8-7-||
E|-------------------------------------------------------||

Verse 1          
G|-----------------|-------------------------|X3
D|-----------------|----------------5---4--5-|
A|-----------------|-3-r---------------------|
E|-0--r------------|-------------------------|
 |
G|-----------------|
D|-----------------|
A|-----------------|
E|-0--r------------|
 |
G|-------------------------------------------------------------||X2
D|-------------------------------------------------------------||
A|------------------------------------1--1-1111------1--1-1111-||
E|-2--0-2--2-2222-2--0-2--2-2222-0--0-----------0--0-----------||

            |X8
G|----------|--------------------------||
D|-2--------|--2-r---3-3----5-5----5-3-||
A|----------|--------------------------||
E|----------|--------------------------||

Pre-verse
G|--------------------------------------||X2
D|--------------------------------------||
A|-7-777-7-7-7-7--8---7-777-7-7-7--8-7--||
E|--------------------------------------||
      
Verse 3                                            
G|-------------------------------------------------|X2
D|-------------------------------------------------|
A|--7-777-7-7-777-7--8---8--7-777-7-7-777--8-7---7-|
E|-------------------------------------------------|
 |
G|-----------------------------------------------|X2
D|-----------------------------------------------|
A|--7-777-7-7-777-7--7---3--7-777-7-7-777--8---2-|
E|-----------------------------------------------|

Bridge
G|------------------------------------------------------|
D|------------------------------------------------------|
A|-5--5/7-5----------------7-777-7-777--8-777-5-777-7-7-|
E|-----------5/6--6-7-6-5-------------------------------|
 |
G|------------------------||
D|------------------------||
A|-5--5/7-5---------------||
E|-----------5/6--6-7-6-5-||

Verse 4                                            
G|-------------------------------------------------|X2
D|-------------------------------------------------|
A|--7-777-7-7-777-7--8---8--7-777-7-7-777--8-7---7-|
E|-------------------------------------------------|
 |
G|-----------------------------------------------|X2
D|-----------------------------------------------|
A|--7-777-7-7-777-7--7---3--7-777-7-7-777--8---2-|
E|-----------------------------------------------|

Bridge b
G|------------------------------------------------------|
D|------------------------------------------------------|
A|-5--5/7-5----------------7-777-7-777--8-777-5-777-7-7-|
E|-----------5/6--6-7-6-5-------------------------------|
 |
G|-----------------------------------------------------|
D|-----------------------------------------------------|
A|-5--5/7-5----------------7---------------------------|
E|-----------5/6--6-7-6-5----0-0-0-0-0-0-0-0-0-0-0-0-0-|
 |                        |X4
G|------------------------|------------------------------||
D|------------------------|------------------------------||
A|-5--5/7-5---------------|-7-777-7-777--8-777-5-777-7-7-||
E|-----------5/6--6-7-6-5-|------------------------------||

Interlude
G|--------------------------------------------------------------------------||X4
D|--------------------------------------------------------------------------||
A|--------------------------------------------------------------------------||
E|--0-r------------------------------3---1-r--------------------------------||

Solo         X2|
G|-------------|------------------------||X8
D|-------------|------------------------||
A|-7-777-5-7\--|------------------------||
E|-------------|--5-6--6-7-6--5---3-5-3-||

Ending
G|-------------------------||
D|-------------------------||
A|-------------------------||
E|--2--2-2-2--1--1-1-1---5-||

Acoustic Guitar & verse
                           Near the end of the acoustic part
G|-------------------------------------------------------------------||
D|-------------------------------------------------------------------||
A|-12----10----12----10-----8---7--5---------------------------------||
E|------------------------------------00000000000000000-0 [let ring]-||


  development and support by
dmitry ivanov