rock
 
|tablatures   |lyrics   |discussion forums   |more tabs @ XGuitar.com

Iced Earth tabs

A Question of Heaven bass tab

ICED EARTH
Question Of Heaven
from The Dark Saga by Schaffer
Transcripted by Stefano Lopez (toscanino@inwind.it)

FIND EVERY ICED EARTH SONG AND
THE MOST UPDATED VERSION OF THIS SONG AT:

                          The Frozen Palace
                  http://abysslord.com/icedearth/

PLEASE DO NOT COPY THIS TAB TO ANOTHER SITE 
WITHOUT AUTHORS' PERMISSION.  THANK YOU.

Tune down  step

The Suffering - part 3

Intro & verse 1 

G|-------------7-/-|-----------7-5-/-|--------5--------|------------------||
D|--------7-9------|-----------------|-----------------|------------------||
A|-7-r-------------|-5-r-------------|-3-r----------3--|------------------||
E|-----------------|-----------------|-----------------|-3--------2---3-2-||

Verse 2 x3
G|-------------7-/-|-----------5-7-/-|--------5--------|------------------||
D|--------7-9------|-----------------|-----------------|------------------||
A|-7-r-------------|-5-r-------------|-3-r----------3--|------------------||
E|-----------------|-----------------|-----------------|-3--------2---3-2-||

Riff 1 x2
G|-------------------------------------------------------------------------|
D|-------------------------------------------------------------------------|
A|--------7--7--------7--7--------5--5--------5--5--------3--3--------5--5-|
E|-0-0000------0-0000------0-0000------0-0000------0-0000------0-0000------|
 |
G|------------------||
D|------------------||
A|------------------||
E|-3------3-2---3-2-||

Pre-verse x2
G|--------------------------||
D|--------------------------||
A|--------------------------||
E|-000000-0---000000-0-00-1-||

Verse 3 x4
G|--------------------------||
D|--------------------------||
A|--------------------------||
E|-000000-0---000000-0-00-1-||

Bridge x2
G|-------------------------------------------------------------------------|
D|-------------------------------------------------------------------------|
A|--------7--7--------7--7--------5--5--------5--5--------3--3--------5--5-|
E|-0-0000------0-0000------0-0000------0-0000------0-0000------0-0000------|
 |
G|------------------||
D|------------------||
A|------------------||
E|-3------3-2---3-2-||

Verse 4 x4
G|--------------------------||
D|--------------------------||
A|--------------------------||
E|-000000-0---000000-0-00-1-||


Bridge x2
G|-------------------------------------------------------------------------|
D|-------------------------------------------------------------------------|
A|--------7--7--------7--7--------5--5--------5--5--------3--3--------5--5-|
E|-0-0000------0-0000------0-0000------0-0000------0-0000------0-0000------|
 |
G|------------------|| G|---------------||
D|------------------|| D|---------------||
A|------------------|| A|---------------||
E|-3------3-2---3-2-|| E|-000000-0--r---||

-Acoustic part-  

G|----------------------------------------------------------7h9p7-------||
D|------------------------------------------------------7h9--------9-7/-||
A|----------------------------------------------------------------------||
E|-0-r-------------0-r------------0-r------------0-r--------------------||

Verse 5
G|-----------------|-----------------|-----------------|------------------|
D|-----------------|-----------------|-----------------|------------------|
A|-----------------|-----------------|-5-r-------------|-7-----------7-r--|
E|-0-r-------------|-3-r-------------|-----------------|----0---0-0-------|
 |
G|-----------------|-----------------|-----------------|------------------||X3
D|-----------------|-----------------|-----------------|------------------||
A|-----------------|-----------------|-5-r------5--8-5-|-7-----------7-r--||
E|-0-r-------------|-3-r-------------|-----------------|----0---0-0-------||

-End acoustic part-

Solo x2
G|-------------------------------------------------------------||
D|-------------------------------------------------------------||
A|-------------------------------5--5-5--5-r-------------------||
E|-0--0-0--0-r----3--3-3--3-r-------------------0--0-0--0-r----||

Verse 6
G|------------------------------------------------------------|
D|------------------------------------------------------------|
A|-------------------------------5--5-5--5-r---5--7-7-----r---|
E|-0--0-0--0-r----3--3-3--3-r--------------------------0------|
 | 
G|-----------------------------------------------------------------||
D|-----------------------------------------------------------------||
A|-------------------------------5--5-5--5-r---5--7-7-----5--7-7---||
E|-0--0-0--0-r----3--3-3--3-r--------------------------0---------0-||

Verse 7 x4 (outro)
G|------------------------------------------------------------|
D|------------------------------------------------------------|
A|-------------------------------5--5-5--5-r---5--7-7-----r---|
E|-0--0-0--0-r----3--3-3--3-r--------------------------0------|
 | 
G|-----------------------------------------------------------------||(fade out)
D|-----------------------------------------------------------------||
A|-------------------------------5--5-5--5-r---5--7-7-----5--7-7---||
E|-0--0-0--0-r----3--3-3--3-r--------------------------0---------0-||



  development and support by
dmitry ivanov