rock
 
|tablatures   |lyrics   |discussion forums   |more tabs @ XGuitar.com

Helloween tabs

Why bass tab

tune down

F#||------------------|------------------|------------------|------------------|
C#||------------------|------------------|------------------|------------------|
G#||------------------|------------------|------------------|------------------|
D#||------------------|------------------|------------------|------------------|



--------------------------|--------------------------|
--------------------------|--------------------------|
--------------------------|--------------------------|
--0--0--0--0--0--0--0--0--|--0--0--0--0--0--0--0--0--|



--------------------------|--------------------------|
--------------------------|--------------------------|
--------------------------|--------------------------|
--0--0--0--0--0--0--0--0--|--0--0--0--0--2--2--1--1--|



--------------------------|--------------------------|
--------------------------|--------------------------|
--------------------------|--------------------------|
--0--0--0--0--0--0--0--0--|--0--0--0--0--0--0--0--0--|



--------------------------|--------------------------|
--------------------------|--------------------------|
--------------------------|--------------------------|
--0--0--0--0--0--0--0--0--|--0--0--0--0--2--2--5--5--|



--------------------------|--------------------------|
--------------------------|--------------------------|
--------------------------|--------------------------|
--0--0--0--0--0--0--0--0--|--0--0--0--0--0--0--0--0--|



--------------------------|--------------------------|
--------------------------|--------------------------|
--------------------------|--------------------------|
--0--0--0--0--0--0--0--0--|--0--0--0--0--2--2--5--5--|



--------------------------|--------------------------|
--------------------------|--------------------------|
--------------------------|--------------------------|
--0--0--0--0--0--0--0--0--|--0--0--0--0--0--0--0--0--|



--------------------------|--------------------------|
--------------------------|--------------------------|
--------------------------|--------------------------|
--0--0--0--0--0--0--0--0--|--0--0--0--0--2--2--5--5--|



--------------------------|--------------------------|
--------------------------|--------------------------|
--------------------------|--------------------------|
--0--0--0--0--0--0--0--0--|--0--0--0--0--0--0--0--0--|



--------------------------|--------------------------|
--------------------------|--------------------------|
--------------------------|--------------------------|
--0--0--0--0--0--0--0--0--|--0--0--0--0--2--2--5--5--|



--------------------2-----|--------------------------|
-----------------2-----2--|--------------------------|
--0--0--0--0--0-----------|--5--5--5--5--5--7--5--3--|
--------------------------|--------------------------|



--------------------2-----|--------------------------|
-----------------2-----2--|--------------------------|
--0--0--0--0--0-----------|--5--5--5--5--5--7--5--3--|
--------------------------|--------------------------|



--------------------2-----|-------------------------|--------------------------|
-----------------2-----2--|--4--0--0--2-------------|--------------------------|
--0--0--0--0--0-----------|----------------3--2--0--|--5--5--5--5--5--5--5--5--|
--------------------------|-------------------------|--------------------------|



--------------------------|--------------------------|
--------------------------|--------------------------|
--------------------------|--3--3--3--3--3--3--------|
--0--0--0--0--0--0--3--0--|--------------------5--3--|



--------------------------|--------------------------|
--------------------------|--------------------------|
--5--5--5--5--5--5--5--5--|--2--2--2-----------------|
--------------------------|-----------3--3--3--2--2--|



--------------------------|--------------------------|
--------------------------|--------------------------|
--------------------------|--3--3--3--3--3--3--------|
--0--0--0--0--0--0--3--0--|--------------------5--3--|



--------------------------|--------------------------|-------------------|
--------------------------|--4--4--4-----------------|-------------------|
--5--5--5--5--5--5--5--5--|-----------7--7--7--7--7--|-------------------|
--------------------------|--------------------------|--2----------------|



--------------------------|--------------------------|
--------------------------|--------------------------|
--------------------------|--------------------------|
--0--0--0--0--0--0--0--0--|--0--0--0--0--0--0--0--0--|



--------------------------|--------------------------|
--------------------------|--------------------------|
--------------------------|--------------------------|
--0--0--0--0--0--0--0--0--|--0--0--0--0--2--2--5--5--|



--------------------------|--------------------------|
--------------------------|--------------------------|
--------------------------|--------------------------|
--0--0--0--0--0--0--0--0--|--0--0--0--0--0--0--0--0--|



--------------------------|--------------------------|
--------------------------|--------------------------|
--------------------------|--------------------------|
--0--0--0--0--0--0--0--0--|--0--0--0--0--2--2--5--5--|



--------------------------|--------------------------|
--------------------------|--------------------------|
--------------------------|--------------------------|
--0--0--0--0--0--0--0--0--|--0--0--0--0--0--0--0--0--|



--------------------------|--------------------------|
--------------------------|--------------------------|
--------------------------|--------------------0--0--|
--0--0--0--0--0--0--0--0--|--0--0--0--0--2--2--------|



--------------------2-----|--------------------------|
-----------------2-----2--|--------------------------|
--0--0--0--0--0-----------|--5--5--5--5--5--7--5--3--|
--------------------------|--------------------------|



--------------------2-----|--------------------------|
-----------------2-----2--|--------------------------|
--0--0--0--0--0-----------|--5--5--5--5--5--7--5--3--|
--------------------------|--------------------------|



--------------------2-----|-------------------------|--------------------------|
-----------------2-----2--|--4--0--0--2-------------|--------------------------|
--0--0--0--0--0-----------|----------------3--2--0--|--5--5--5--5--5--5--5--5--|
--------------------------|-------------------------|--------------------------|



--------------------------|--------------------------|
--------------------------|--------------------------|
--------------------------|--3--3--3--3--3--3--------|
--0--0--0--0--0--0--3--0--|--------------------5--3--|



--------------------------|--------------------------|
--------------------------|--------------------------|
--5--5--5--5--5--5--5--5--|--2--2--2-----------------|
--------------------------|-----------3--3--3--2--2--|



--------------------------|--------------------------|
--------------------------|--------------------------|
--------------------------|--3--3--3--3--3--3--------|
--0--0--0--0--0--0--3--0--|--------------------5--3--|



--------------------------|--------------------------|
--------------------------|--4--4--4-----------------|
--5--5--5--5--5--5--5--5--|-----------7--7--7--------|
--------------------------|--------------------3--2--|



--------------------------|--------------------------|
--------------------------|--------------------------|
--------------------------|--3--3--3--3--3--3--------|
--0--0--0--0--0--0--3--0--|--------------------5--3--|



--------------------------|--------------------------|
--------------------------|--------------------------|
--5--5--5--5--5--5--5--5--|--2--2--2-----------------|
--------------------------|-----------3--3--3--2--2--|



--------------------------|--------------------------|
--------------------------|--------------------------|
--------------------------|--3--3--3--3--3--3--------|
--0--2--3--0--0--0--3--0--|--------------------5--3--|



--------------------------|--------------------------|
--------------------------|--------------------------|
--5--5--5--5--5--5--5--5--|--6--6--6--7--7--7--9--9--|
--------------------------|--------------------------|



-----------------------------|--------------------------|
-----------------------7--7--|--------------------------|
--9--9--9--10--10--10--------|--3--3--3--3--3--3--3--3--|
-----------------------------|--------------------------|



--------------------------|--------------------------|
--------------------------|--------------------------|
--5--5--5--5--5--5--5--5--|--------------------------|
--------------------------|--3--3--3--3--2--2--2--2--|



--------------------------|--------------------------|
--------------------------|--------------------------|
--------------------------|--3--3--3--3--3--3--3--3--|
--0--0--0--0--0--0--3--0--|--------------------------|



--------------------------|--------------------------|
--------------------------|--------------------------|
--5--5--5--5--5--5--5--5--|--2--2--2--2--2--2--2--2--|
--------------------------|--------------------------|



--------------------------|--------------------------|
--------------------------|--------------------------|
--2--2--2--2--2--2--2--2--|--3--3--3--3--3--3--3--3--|
--------------------------|--------------------------|



--------------------------|--------------------------|
--------------------------|--------------------------|
--5--5--5--5--5--5--5--5--|--------------------------|
--------------------------|--3--3--3--3--2--2--2--2--|



--------------------------|--------------------------|
--------------------------|--------------------------|
--------------------------|--3--3--3--3--3--3--3--3--|
--0--0--2--2--3--3--5--5--|--------------------------|



--------------------------|--------------------------|
--------------------------|--------------------------|
--5--5--5--5--5--5--5--5--|--------------------------|
--------------------------|--0--0--0--2--2--2--5--2--|



--------------------------|--------------------------|
--------------------------|--------------------------|
--------------------3-----|--2--2--2--3--3--3--3--3--|
--3--3--3--5--5--5-----5--|--------------------------|



--------------------------|--------------------------|
--------------------------|--------------------------|
--5--5--5--5--5--5--5--5--|--------------------------|
--------------------------|--0--0--0--0--0--0--3--0--|



--------------------------|--------------------------|
--------------------------|--------------------------|
--3--3--3--3--3--3--------|--5--5--5--5--5--5--5--5--|
--------------------5--3--|--------------------------|



--------------------------|--------------------------|
--------------------------|--------------------------|
--2--2--2-----------------|--------------------------|
-----------3--3--3--2--2--|--0--0--0--0--0--0--3--0--|



--------------------------|--------------------------|
--------------------------|--------------------------|
--3--3--3--3--3--3--------|--5--5--5--5--5--5--5--5--|
--------------------5--3--|--------------------------|



--------------------------|--------------------------|
--4--4--4-----------------|--------------------------|
-----------7--7--7--------|--------------------------|
--------------------5--3--|--0--0--0--0--0--0--3--0--|



--------------------------|--------------------------|
--------------------------|--------------------------|
--3--3--3--3--3--3--------|--5--5--5--5--5--5--5--5--|
--------------------5--3--|--------------------------|



--------------------------|--------------------------|
--------------------------|--------------------------|
--2--2--2-----------------|--------------------------|
-----------3--3--3--2--2--|--0--2--3--0--0--0--3--0--|



--------------------------|--------------------------|
--------------------------|--------------------------|
--3--3--3--3--3--3--------|--5--5--5--5--5--5--5--5--|
--------------------5--3--|--------------------------|



--------------------------|-------------------|--------------------------|
--4--4--4-----------------|-------------------|--------------------------|
-----------7--7--7--7--7--|-------------------|--------------------------|
--------------------------|--2----------------|--0--0--0--0--0--0--0--0--|



--------------------------|--------------------------|
--------------------------|--------------------------|
--------------------------|--------------------------|
--0--0--0--0--0--0--0--0--|--0--0--0--0--0--0--0--0--|



--------------------------|--------------------------|
--------------------------|--------------------------|
--------------------------|--------------------------|
--0--0--0--0--2--2--1--1--|--0--0--0--0--0--0--0--0--|



--------------------------|--------------------------|
--------------------------|--------------------------|
--------------------------|--------------------------|
--0--0--0--0--0--0--0--0--|--0--0--0--0--0--0--0--0--|



--------------------------|--------------------------|
--------------------------|--------------------------|
--------------------------|--------------------------|
--0--0--0--0--2--2--5--5--|--0--0--0--0--0--0--0--0--|



--------------------------|--------------------------|
--------------------------|--------------------------|
--------------------------|--------------------------|
--0--0--0--0--0--0--0--0--|--0--0--0--0--0--0--0--0--|



--------------------------|--------------------------|
--------------------------|--------------------------|
--------------------------|--------------------------|
--0--0--0--0--2--2--5--5--|--0--0--0--0--0--0--0--0--|



--------------------------|--------------------------|
--------------------------|--------------------------|
--------------------------|--------------------------|
--0--0--0--0--0--0--0--0--|--0--0--0--0--0--0--0--0--|



--------------------------||
--------------------------||
--------------------------||
--0--0--0--0--2--2--5--5--||
  development and support by
dmitry ivanov