rock
 
|tablatures   |lyrics   |discussion forums   |more tabs @ XGuitar.com

Helloween tabs

Where The Rain Grows bass tab

Helloween - Where The Rain Grows
from Master Of The Rings by Michael Weikath / Andreas Deris
Transcripted by Ronald König (send your comments to: ronald.konig@pobox.sk)

Meter=4/4 
Tempo=125-130bpm
Tune down 1/2 step

INTRO

|----------------------------------|----------------------------------|
|----------------------------------|-----0---2-------0---2---4---0----|
|-7--------------------------------|-3-----------3--------------------|
|----0-0-0-0-0---------0---0---0---|----------------------------------|

|----------------------------------|----------------------------------|
|--2-------------------------------|-----0---2-------0----------------|
|----------------------------------|-3-----------3--------------------|
|----0-0-0-0-0---------0---0---0---|----------------------------------|


|----------------------------------|----------------------------------|
|--2-------------------------------|-----0---2-------0---2---4---0----|
|----------------------------------|-3-----------3--------------------|
|----0000000-----------0---0---0---|----------------------------------|

|----------------------------------|----------------------------------|
|--2-------------------------------|-----0---2------------------------|
|----------------------------------|-3-----------3----5-5-5-5-5-5-5-5-|
|----0-0-0-0-0---------0---0---0---|----------------------------------|
                                  
|----------------------------------|----------------------------------|
|----------------------------------|----------------------------------|
|-7---7-7-7-7-7-7-7-7-7-7-7-7-7-7--|-5--------------------------------|
|----------------------------------|----------------------------------|


|----------------------------------|----------------------------------|
|----------------------------------|----------------------------------|
|-7--------------------------------|-3--------------------------------|
|----------------------------------|----------------------------------|



|----------------------------------|----------------------------------|
|----------------------------------|----------------------------------|
|-5----------------------------5-5-|-7--------------------------------|
|----------------------------------|-----0------------------------0-0-|


|----------------------------------|----------------------------------|
|----------------------------------|----------------------------------|
|-3--------------------------------|-5--------------------------------|
|------------------------------0-0-|------------------------------0-0-|


|----------------------------------|----------------------------------|
|-----9-------11------12--11--9----|----------------------------------|
|-7-------9-------10------9---7----|-3-3-3-3-3-3-3-3-5-5-5-5-5-5-5-5--|
|----------------------------------|----------------------------------|


|---------------------0---2---4----|----------------------------------|
|-----2-------4--------------------|----------------------------------|
|----------------------------------|-3-3-3-3-3-3-3-3-5-5-5-5-5-5-5-5--|
|-0-------2-------3----------------|----------------------------------|

VERSE

|----------------------------------|----------------------------------|
|----------------------------------|-----0---2-------0---2---4---0----|
|-7--------------------------------|-3-----------3--------------------|
|----0-0-0-0-0---------0---0---0---|----------------------------------|

I never looked higher              Than I could see

|----------------------------------|----------------------------------|
|-2--------------------------------|-----0---2-------0----------------|
|----------------------------------|-3-----------3--------------------|
|----0-0-0-0-0---------0---0---0---|----------------------------------|

Never gave less                    Than I have given me

|----------------------------------|----------------------------------|
|--2-------------------------------|-----0---2-------0---2---4---0----|
|----------------------------------|-3-----------3--------------------|
|----0-0-0-0-0---------0---0---0---|----------------------------------|

The more you have taken            You turned into fakes
 
|----------------------------------|----------------------------------|
|--2-------------------------------|-----0---2-------0----------------|
|----------------------------------|-3-----------3--------------------|
|----0-0-0-0-0---------0---0---0---|----------------------------------|

I finally know now                 Why, for heavens' sake?

BRIDGE

|----------------------------------|----------------------------------|
|----------------------------------|----------------------------------|
|-2-2---5-5---7-7--7-7-7-9-9-12-12-|-7-7-7-7-7-7-7-7-7-7-7-7-7-7-7-7--|
|----------------------------------|----------------------------------|

Don't tell me you did not see      that I cried
 
|----------------------------------|----------------------------------|
|----------10--9-----7----5--------|----------------------------------|
|--\3--/17-------------------------|-5--------3----------2------------|
|----------------------------------|-------------------------------5--|

Don't act so deaf and blind

|----------------------------------|----------------------------------|
|----------------------------------|----------------------------------|
|-2-2---5-5---7-7--7-7-7-9-9-12-12-|-7-7-7-7-7-7-7-7-7-7-7-7-7-7-7-7--|
|----------------------------------|----------------------------------|

Don't think that if someone's      made dumb to the core

|----------------------------------|----------------------------------|
|----------10--9-----7----5--------|----------------------------------|
|--\3--/17-------------------------|-5--------7----------9---------7--|
|----------------------------------|----------------------------------|

He would stay like before

CHORUS

|----------------------------------|----------------------------------|
|----------------------------------|----------------------------------|
|----------------------------------|-5-5-5-5-5-5-5-5-5-5-5-5-2-2-2-2--|
|-3-3-3-3-3-3-3-3-3-3-3-3-3-3-3-3--|----------------------------------|

So I take my life
 
|----------------------------------|----------------------------------|
|----------------------------------|----------------------------------|
|-7-7-7-7-7-7-7-7-7-7-7-7-7-7-7-7--|-2-2-2-2-2-2-2-2-2-2-2-2-5-5-5-5--|
|----------------------------------|----------------------------------|

Back from where the rain grows

|----------------------------------|----------------------------------|
|----------------------------------|----------------------------------|
|----------------------------------|-5-5-5-5-5-5-5-5-5-5-5-5-2-2-2-2--|
|-3-3-3-3-3-3-3-3-3-3-3-3-3-3-3-3--|----------------------------------|

Die to survive

|----------------------------------|----------------------------------|
|----------------------------------|----------------------------------|
|-7-7-7-7-7-7-7-7-7-7-7-7-7-7-7-7--|-3---------------5----------------|
|----------------------------------|----------------------------------|

Back from where the rain grows

BRIDGE 2

|----------------------------------|----------------------------------|
|---------9-9-9-9-12--10--9---7----|----------------------------------|
|-7-7-7-7--------------------------|---------10-10-10-10-12-10-9------|
|----------------------------------|-8-8-8-8---------------------10---|


|---------------------------------------|---------------------------------|
|---------9-9-9-9-12-12-10-10-9-9-------|---------------------------------|
|-7-7-7-7-------------------------10-10-|---------10-10-10-10-12-10-9-----|
|---------------------------------------|-8-8-8-8---------------------10--|

VERSE

|----------------------------------|----------------------------------|
|----------------------------------|-----0---2-------0---2---4---0----|
|-7--------------------------------|-3-----------3--------------------|
|----0-0-0-0-0---------0---0---0---|----------------------------------|

Now you call me liar               'cause you are just the

|----------------------------------|----------------------------------|
|-2--------------------------------|-----0---2-------0----------------|
|----------------------------------|-3-----------3--------------------|
|----0-0-0-0-0---------0---0---0---|----------------------------------|

"Always-have-right-fools-majority"

|----------------------------------|----------------------------------|
|--2-------------------------------|-----0---2-------0---2---4---0----|
|----------------------------------|-3-----------3--------------------|
|----0-0-0-0-0---------0---0---0---|----------------------------------|

I think that if someone            starved at your side

|----------------------------------|----------------------------------|
|--2-------------------------------|-----0---2-------0----------------|
|----------------------------------|-3-----------3--------------------|
|----0-0-0-0-0---------0---0---0---|----------------------------------|

You'd all turn your back           Won't give any dime

|----------------------------------|----------------------------------|
|----------------------------------|----------------------------------|
|-2-2---5-5---7-7--7-7-7-9-9-12-12-|-7-7-7-7-7-7-7-7-7-7-7-7-7-7-7-7--|
|----------------------------------|----------------------------------|

Don't tell me you did not see      that I cried

|----------------------------------|----------------------------------|
|----------10--9-----7----5--------|----------------------------------|
|--3\--/17-------------------------|-5--------3----------2------------|
|----------------------------------|-------------------------------5--|

Don't act so deaf and blind

|----------------------------------|----------------------------------|
|----------------------------------|----------------------------------|
|-2-2---5-5---7-7--7-7-7-9-9-12-12-|-7-7-7-7-7-7-7-7-7-7-7-7-7-7-7-7--|
|----------------------------------|----------------------------------|

Don't think that if someone's      made sad to the core

|----------------------------------|----------------------------------|
|----------10--9-----7----5--------|----------------------------------|
|--3\--/17-------------------------|-5--------7----------9---------7--|
|----------------------------------|----------------------------------|

He would stay like before

CHORUS

|----------------------------------|----------------------------------|
|----------------------------------|----------------------------------|
|----------------------------------|-5-5-5-5-5-5-5-5-5-5-5-5-2-2-2-2--|
|-3-3-3-3-3-3-3-3-3-3-3-3-3-3-3-3--|----------------------------------|

So I take my life
 
|----------------------------------|----------------------------------|
|----------------------------------|----------------------------------|
|-7-7-7-7-7-7-7-7-7-7-7-7-7-7-7-7--|-2-2-2-2-2-2-2-2-2-2-2-2-5-5-5-5--|
|----------------------------------|----------------------------------|

Back from where the rain grows

|----------------------------------|----------------------------------|
|----------------------------------|----------------------------------|
|----------------------------------|-5-5-5-5-5-5-5-5-5-5-5-5-2-2-2-2--|
|-3-3-3-3-3-3-3-3-3-3-3-3-3-3-3-3--|----------------------------------|

Die to survive

|----------------------------------|----------------------------------|
|----------------------------------|----------------------------------|
|-7-7-7-7-7-7-7-7-7-7-7-7-7-7-7-7--|-5-5-5-5-5-5-5-5-5----------------|
|----------------------------------|----------------------------------|

Back from where the rain grows

GUITAR SOLO

|----------------------------------|----------------------------------|
|----------------------------------|----------------------------------|
|-7----------7------------7-7-7-7--|-5---------------3----------------|
|----0-0-0-0-----------------------|-------------------------3--------|


|----------------------------------|----------------------------------|
|----------------------------------|----------------------------------|
|-7----------7------------7-7-7-7--|-5---------------3----------------|
|----0-0-0-0-----------------------|-------------------------3--------|


|----------------------------------|----------------------------------|
|----------------------------------|----------------------------------|
|-7----------7------------7-7-7-7--|-5---------------3----------------|
|----0-0-0-0-----------------------|-------------------------3--------|


|----------------------------------|----------------------------------|
|----------------------------------|----------------------------------|
|-7----------7------------7-7-7-7--|-5---------------3----------------|
|----0-0-0-0-----------------------|-------------------------3--------|


|----------------------------------|----------------------------------|
|-0-0-0-0-0-0-0-0-0-0-0-0-0-2-3-5--|-2-2-2-2-2-2-2-2-2-2-2-2-5-5-5-5--|
|----------------------------------|----------------------------------|
|----------------------------------|----------------------------------|


|----------------------------------|----------------------------------|
|----------------------------------|-5-5-5-5-4-4-4-4-2-2-2-2----------|
|-5-5-5-5-5-5-5-5-5-5-5-5-5-5-5-2--|-------------------------2-2-2-2--|
|----------------------------------|----------------------------------|

|----------------------------------|----------------------------------|
|-0-0-0-0-0-0-0-0-0-0-0-0-0-2-3-5--|-2-2-2-2-2-2-2-2-2-2-2-2-5-5-5-5--|
|----------------------------------|----------------------------------|
|----------------------------------|----------------------------------|


|----------------------------------|----------------------------------|
|----------------------------------|-5-5-5-5-4-4-4-4-2-2-2-2----------|
|-5-5-5-5-5-5-5-5-5-5-5-5-5-5-5-2--|-------------------------2-2-2-2--|
|----------------------------------|----------------------------------|


|----------------------------------|----------------------------------|
|----------------------------------|----------------------------------|
|-7-7-7-7-7-7-7-7-7-7-7-7-7-7-7-7--|-5-5-5-5-5-5-5-5-5-5-5-5-5-5-5-5--|
|----------------------------------|----------------------------------|


|----------------------------------|----------------------------------|
|----------------------------------|----------------------------------|
|----------------------------------|-3-3-3-3-3-3-3-3-5-5-5-5-5-5-5-5--|
|-3-3-3-3-3-3-3-3-3-3-3-3-3-3-3-3--|----------------------------------|


|----------------------------------|----------------------------------|
|----------------------------------|----------------------------------|
|-7-7-7-7-7-7-7-7-7-7-7-7-7-7-7-7--|-5-5-5-5-5-5-5-5-5-5-5-5-5-5-5-5--|
|----------------------------------|----------------------------------|


|----------------------------------|----------------------------------|
|----------------------------------|----------------------------------|
|----------------------------------|-3---------------5----------------|
|-3-3-3-3-3-3-3-3-3-3-3-3-3-3-3-3--|----------------------------------|


|----------------------------------|----------------------------------|
|----------------------------------|----------------------------------|
|-2-2-2-2-2-2-2-2-2-2-2-2-2-2-2-2--|----------------------------------|
|----------------------------------|-3-3-3-3-3-3-3-3-5-5-5-5-5-5-5-5--|


|----------------------------------|----------------------------------|
|----------------------------------|----------------------------------|
|-2-2-2-2-2-2-2-2-2-2-2-2-2-2-2-2--|-----------------5-5-5-5-5-5-5-5--|
|----------------------------------|-3-3-3-3-3-3-3-3------------------|


|----------------------------------|----------------------------------|
|----------------------------------|----------------------------------|
|-2-2-2-2-2-2-2-2-2-2-2-2-2-2-2-2--|----------------------------------|
|----------------------------------|-3-3-3-3-3-3-3-3-5-5-5-5-5-5-5-5--|


|----------------------------------|----------------------------------|
|----------------------------------|----------------------------------|
|-2-2-2-2-2-2-2-2-2-2-2-2-2-2-2-2--|-----------------5-5-5-5-5-5-5-5--|
|----------------------------------|-3-3-3-3-3-3-3-3------------------|


|----------------------------------|----------------------------------|
|----------------------------------|----------------------------------|
|-7-7-7-7-7-7-7-7-7-7-7-7-7-7-7-7--|-5-5-5-5-5-5-5-5-5-5-5-5-5-5-5-5--|
|----------------------------------|----------------------------------|



|----------------------------------|----------------------------------|
|----------------------------------|----------------------------------|
|----------------------------------|-5-5-5-5-5-5-5-5-5-5-5-5-5-5-5-5--|
|-3-3-3-3-3-3-3-3-3-3-3-3-3-3-3-3--|----------------------------------|


|----------------------------------|----------------------------------|
|----------------------------------|----------------------------------|
|----------------------------------|-2-2-2-2-2-2-2-2-2-2-2-2-2-2-2-2--|
|-0-0-0-0-0-0-0-0-0-0-0-0-0-0-0-0--|----------------------------------|


|----------------------------------|----------------------------------|
|----------------------------------|----------------------------------|
|-3-3-3-3-3-3-3-3-3-3-3-3-3-3-3-3--|-5-5-5-5-5-5-5-5-5-5-5-5-5-5-5-5--|
|----------------------------------|----------------------------------|

CHORUS 

|----------------------------------|----------------------------------|
|----------------------------------|----------------------------------|
|----------------------------------|-5-5-5-5-5-5-5-5-5-5-5-5-2-2-2-2--|
|-3-3-3-3-3-3-3-3-3-3-3-3-3-3-3-3--|----------------------------------|

So I take my life
 
|----------------------------------|----------------------------------|
|----------------------------------|----------------------------------|
|-7-7-7-7-7-7-7-7-7-7-7-7-7-7-7-7--|-2-2-2-2-2-2-2-2-2-2-2-2-5-5-5-5--|
|----------------------------------|----------------------------------|

Back from where the rain grows

|----------------------------------|----------------------------------|
|----------------------------------|----------------------------------|
|----------------------------------|-5-5-5-5-5-5-5-5-5-5-5-5-2-2-2-2--|
|-3-3-3-3-3-3-3-3-3-3-3-3-3-3-3-3--|----------------------------------|

Die to survive

|----------------------------------|----------------------------------|
|----------------------------------|----------------------------------|
|-7-7-7-7-7-7-7-7-7-7-7-7-7-7-7-7--|-3---------------5----------------|
|----------------------------------|----------------------------------|

Back from where the rain grows

BRIDGE 2

|----------------------------------|----------------------------------|
|---------9-9-9-9-12--10--9---7----|----------------------------------|
|-7-7-7-7--------------------------|---------10-10-10-10-12-10-9------|
|----------------------------------|-8-8-8-8---------------------10---|


|---------------------------------------|---------------------------------|
|---------9-9-9-9-12-12-10-10-9-9-------|---------------------------------|
|-7-7-7-7-------------------------10-10-|---------10-10-10-10-12-10-9-----|
|---------------------------------------|-8-8-8-8---------------------10--|


|----------------------------------|----------------------------------|
|---------9-9-9-9-12--10--9---7----|----------------------------------|
|-7-7-7-7--------------------------|---------10-10-10-10-12-10-9------|
|----------------------------------|-8-8-8-8---------------------10---|

I know where the rain grows

|---------------------------------------|---------------------------------|
|---------9-9-9-9-12-12-10-10-9-9-------|---------------------------------|
|-7-7-7-7-------------------------10-10-|---------10-10-10-10-12-10-9-----|
|---------------------------------------|-8-8-8-8---------------------10--|

OUTRO

|----------------------------------|----------------------------------|
|----------------------------------|----------------------------------|
|-7--------------------------------|----------------5-----------------|
|-------0-------2----------3-------|-2--------------------------------|

I'm back from where the rain grows

|----------------------------------|----------------------------------|
|----------------------------------|-------------7-7-7-7-5-5----------|
|-----------------------------5-5--|---------5-5-------------7-7-5-5--|
|--0--------------3-3-5-5-7-7------|-7-5-5-7--------------------------|


|----------------------------------|----------------------------------|
|----------------------------------|----------------------------------|
|----------------------------------|----------------------------------|
|-7-7-5-5-3-5-3-0-0---------0------|----------------------0----0-0-0--|

  development and support by
dmitry ivanov