rock
 
|tablatures   |lyrics   |discussion forums   |more tabs @ XGuitar.com

Helloween tabs

We Got The Right guitar tab

band: Helloween
song: We Got The Right
album: Keeper Of The Seven Keys Part 2
transcribed by: (mwicks@mailexcite.com)
http://www.geocities/SunsetStrip/Amphitheatre/5457/


notation:
^ = bend
^> = bend and release
x = fret-hand muting
pm. = pick-hand muting
spm.= slight palm muting
h = hammer-on
p = pull-off
~ = vibrato
t = tap-on
/ = slide up
\ = slide down
h. = harmonics
(9) = ghost note
" = trem picking





Clean Intro:
C Bar Chord



-----------------------|---|--------------------------------------------------
-----------------------|---|--------------------------------------------------
-----------------------|---|--------------------------------------------------
------------5-4-2------|-x3|--------------------------------------------------
-2--2-2-2-2-------5-4h5|---|--------------------------------------------------
-----------------------|---|--------------------------------------------------
^Intro 

--------------|---------------|---------------|-----------------|-------------
--------------|---------------|---------------|----------------3|-------------
--------------|---------------|---------------|-----------2v---0|-------------
-----------4--|---------------|------------4--|-x4-x6-x7--2v---0|-------------
-2-2-2-4\5---5|--2--4--5-4-2-0|-2--2-2-4\5---5|-x2-x4-x5--0v----|-------------
--------------|---------------|---------------|----------------3|-------------


-------------------------------|----------12------|---------------------------
-------------------------------|-12-13-15----15-13|---------------------------
-------------------------------|------------------|---------------------------
-------------------------------|------------------|---------------------------
-----2\4-5-4-2--------2\4-5-4-2|------------------|---------------------------
-3-3------------3-3-3----------|------------------|---------------------------


--------------------3---------3-----------------------------------------------
--------------------3---------3-----------------------------------------------
-2----4----2----4---0----2----0----2------------------------------------------
-2----4----2----4---0----2----0----2------------------------------------------
-0----2----0----2---x----0----x----0------------------------------------------
--------------------3---------3----0------------------------------------------
^Pre Chorus 
  development and support by
dmitry ivanov