rock
 
|tablatures   |lyrics   |discussion forums   |more tabs @ XGuitar.com

Helloween tabs

Walls Of Jericho guitar tab

Walls Of Jericho

A: Intro: repeat 2 times ; guit 1 1st time (Michael Weikath), guit 2 
comes 2nd time (Kai Hansen)
 E5
|---------------------------|---------------------------|             
|---------------------------|---------------------------|
|---------------------------|---------------------------|
|-9-------9-----------------|--9------9-----------------|
|-7-------7-----------------|--7------7-----------------|
|----0-0-----0-0---0-0-0----|----0-0------0-0---0-0-0---|

B: With drums; repeat 1 time for intro
  E5
|---------------------------------|---------------------------------|
|---------------------------------|---------------------------------|
|---------------------------------|---------------------------------|
|-9-------------------------------|---------------------------------|
|-7-------------------------------|---------------------------------|
|---0-0--0-0-0--0-0-0--0-0-0--|-0-0-0--0-0-0--0-0-0--0-0-0-|

  D5        E5 D5 E5  D5     D#5
|--------|-------------------------|
|--------|-------------------------|
|--------|-------------------------|
|-7------|--9---7--9---7--7--8-----|
|-5------|--7---5--7---5--5--6-----|
|--------|-------------------------|

1st Verse:  play B one time
then     C:
  E5                                                                  
                                                D5
|----------------------------|-----------------------------|------------------|
|----------------------------|-----------------------------|------------------|
|----------------------------|-----------------------------|------------------|
|-9--------------------------|-----------------------------|----------------7-|
|-7--------------------------|-----------------------------|-3-2-------2--5---|
|---0-0--0-0-0--0-0-0--0-0-0-|--0-0-0--0-0-0--0-0-0--0-0-0-|------3-2--0------|

   E5                                           (first time)          
             (second time)
|------------------------------|--------------------|-----||-------------------|
|------------------------------|--------------------|-----||-------------------|  
|------------------------------|--------------------|-----||-------------------|
|--9---------------------------|--7-7-7-7-7--8------|--9--||--7-7-7-7-7--4-----|
|--7---------------------------|--5-5-5-5-5--6------|--7--||--5-5-5-5-5--2-----|
|----0-0--0-0-0--0-0-0--0-0-0--|--------------------|-----||-------------------|

Repeat Part B and C

D: Bridge 1 
    B5                   E5         (repeat 4bars)
|-------|--------|-------|-------|------|------------------------------------------|--------|
|-------|--------|-------|-------|------|------------------------------------------|--------|
|-------|--------|-------|-------|------|-(guit1)-14-15-12-14-----12---------------|--------|
|--4----|--(4)---|--9----|--(9)--|-----%|-(guit2)--9-10--7--9--15--7--14-15--------|--------|
|--2----|--(2)---|--7----|--(7)--|------|-------------------------10------9--10----|-14-----|
|--------|--------|------|-------|------|------------------------------------------|---7----|

2nd Verse:  Play as in 1st Verse

Bridge 2
First 8 bars: guitar 2 play as in bridge 1;  guitar 1 play as follow; 
last 2 bars both as above
   guitar 1 (first 8 bars of bridge 2)
|-------------------|------------------|--------------------------|-------------------|---------|
|-------------------|------------------|--------------------------|-------------------|-repeat--|
|-------------------|------------------|--12-11-12----------------|-------------------|----4----|
|-------------------|----------9-8-9---|---------------15-14-15---|--9-8-9------------|--bars---|
|-----------6-5-6---|--9-8-9-----------|--------------------------|----------7-6-7----|---------|
|--7-6-7------------|------------------|--------------------------|-------------------|---------|

Chorus
   E5  D#5 E5                    E5 D#5 E5                  C5        
     B5   A5
|--------------------------|---------------------|-----|----------|-----|-----|
|--------------------------|---------------------|-----|----------|-----|-----|
|--------------------------|---------------------|-----|----------|-----|-----|
|--9-9-8-9-----------------|--9-8-9--------------|--5--|--(5)--4--|--2--|-(2)-|
|--7-7-6-7-----------------|--7-6-7--------------|--3--|--(3)--2--|--0--|-(0)-|
|------------0-0-0--0-0-0--|---------0-0-0-0-0-0-|-----|----------|-----|-----|

   C5    B5                                                     C5
|-----|------------------------------------|-------------------------------|
|-----|------------------------------------|-------------------------------|
|-----|----------(guit 2; semi harmonics)--|-------------------------------|
|--5--|--4(9-9--9-9-9--9-9-9--9-9-9)-------|---5---------------------------|
|--3--|--2-2-2--2-2-2--2-2-2--2-2-2--------|--3-3-3--3-3-3--3-3-3--3-3- 3--|
|-----|------------------------------------|-------------------------------|

   D5                                               B5                
                  A5
|-------------------------------------|----------------------------------|
|-------------------------------------|----------------------------------|
|-------------------------------------|----------------------------------|
|--7----------------------------------|--4-------------------------------|
|--5-5-5--5-5-5--5-5-5--5-5-5---------|--2-2-2--2-2-2--2-2-2--2-0--------|
|-------------------------------------|----------------------------------|


  D5                    G5 F#5 G5 F#5
|------------------------------------|
|------------------------------------|
|------------------------------------|      repeat last 4 bars 3 times
|--------------------12-11-12-11-----|  
|--5----------------10--9--10--9-----|
|--3-3-3--3-3-3----------------------|

last time; 4 last bars
   C5                                               D5                
                         B5                                      
                                                                       
|------------------------------|-----------------------------|----|-----|
|------------------------------|-----------------------------|----|-----|
|------------------------------|-----------------------------|----|-----|
|--5---------------------------|--7--------------------------|--4-|-(4)-|
|--3-3-3--3-3-3--3-3-3--3-3-3--|--5-5-5--5-5-5--5-5-5--5-5-5-|--2-|-(2)-|
|------------------------------|-----------------------------|----|-----|

then
   E5
|------|
|------|
|------|
|--9---|
|--7---|
|------|
  development and support by
dmitry ivanov