rock
 
|tablatures   |lyrics   |discussion forums   |more tabs @ XGuitar.com

Helloween tabs

Victim Of Fate bass tab

Athor/Artist: Helloween
Title: Victim of fate
Album: Walls of Jericho
Transcribed by: Cesar Vazquez Pedroza,Mexico City.
Email: piontis@starmedia.com


-------------------------------------------------------------------|---------
-------------------------------------------------------------------|---------
-------------------------------------------------------------------|---------
--5--1--3-----8-7-5-----5555555555--1111111111--3333333333--8-7-5--|---------

-----------------------------------------------|-----------------------------
-----------------------------------------------|-----------------------------
-----------------------------------------------|-----------------------------
---5555555555--11111111111--3333333333--8-7-5--|--222-22-222-22-000000--5-3--
                                                My mother is a bitch.... 
--------|---------------------------------|----------------------------------
--------|---------------------------------|----------------------------------
--------|---------------------------------|----------222222222-3333333333----
-2--3-5-|-222-22-222-22-000000--5-3-2--3-5|-333333333------------------------

----------------------------|------------------------------------------------
----------------------------|------------------------------------------------
--5555555555--5-7-8--8-7-5--|-7777777777-3-5-7777777777-10-10-9--------------
----------------------------|------------------------------------------------

-----------------------------------------------------------------------------
-----------------------------------------------------------------------------
----5555555555-10-10-9--7777777777-3-5-7777777777-3-5--10-10-9--5555555555---
-----------------------------------------------------------------------------

----------------------------------------------|------------------------------
----------------------------------------------|------------------------------
-10-10-9--5555555555--10-10-9--7777777777--3-5|------------------------------
----------------------------------------------|-5555555555-1111111111-3333333

------------|----------------------------------------------------------------
------------|----------------------------------------------------------------
------------|----------------------------------------------------------------
333--8-7-5--|-5555555555-11111111111-3333333333--8-7-5-----------------------

----------------------------------|------------------------------------------
----------------------------------|------------------------------------------
----------------------------------|------------------------------------------
-222-22-222-22-000000--5-3-2--3-5-|--222-22-222-22-000000--5-3-2--3-5--------

-----------------------------------------------------------------------------
-----------------------------------------------------------------------------
------------2222222222-3333333333-5555555555--5-7-8--8-7-5-------------------
-3333333333------------------------------------------------------------------

-----------------------------------------------------------------------------
-----------------------------------------------------------------------------
-7777777777-3-5--77777777777-10-10-9--5555555555-10-10-9-7777777777--3-5-----
-----------------------------------------------------------------------------

-----------------------------------------------------------------------------
-----------------------------------------------------------------------------
-7777777777-3-5--77777777777-10-10-9--5555555555-10-10-9-7777777777-3-5------
-----------------------------------------------------------------------------

------------------------------------|----------------------------------------
------------------------------------|---------------------------------------- X 8
------------------------------------|--7---7-9-10----------------------------
-5555555555-1111111111-3333333333---|-------------8---8-7-5---5---7-8-7------


More later......
  development and support by
dmitry ivanov