rock
 
|tablatures   |lyrics   |discussion forums   |more tabs @ XGuitar.com

Helloween tabs

Twilight Of The Gods bass tab

Author/Artist: Helloween
Title: Twilight Of The Gods
Album: Keeper Of The Seven Keys part I
Transcribed by: André Baida from Brazil
Email: andrecp@bestway.com.br


Intro.

G--------------------------------------------------------------------|---
D--------------------------------------------------------------------|---
A------------------2-2-2-2-2-2-2-2-4-4-4-4-4-4-4-4-------------------|---
E--0-0-0-0-0-0-0-0---------------------------------4-4-4-4-4-4-4-4---|---
                                                                              

G--------------------------------------------------------------------|---
D--------------------------------------------------------------------|---
A------------------2-2-2-2-2-2-2-2-0-0-0-0-0-0-0-0-------------------|---
E--0-0-0-0-0-0-0-0---------------------------------4-4-4-4-4-4-4-4---|---
                                                                              

Insania 2014!!

G-----------------------------------|---
D-----------------------------------|---
A-----------------------------------|---
E--2-2-2-2-2-2-2-2-2-2-2-2-2-2-2-2--|---
                                                                              

Vocals.

G------------------------------------------------------------------------------
D--2-2-2-2-2-2-2-2-2-----------------------------------------------------------
A--------------------3-3-3-3-3-3-3-3-5-5-5-5-5-5-5-5-2-2-2-2-2-2-2-2--2-3-2-0--
E------------------------------------------------------------------------------
                                                                              

G-----------|---
D-----------|---
A-2-0-------|---
E-----3-2---|---
                                                                              
Bridge.

G------------------------------------------------------------------------------
D---0-0-0-0-0-0-0-0-0-0-0-0----------------------------------------------------
A---------------------------------------------------3-3-3-3-3-3-3-3-3-3-3-3----
E---------------------------1-1-1-1-1-1-1-1-1-1-1-1----------------------------
                                                                              

G------------------------------------------------------------------------------
D---0-0-0-0-0-0-0-0-0-0-0-0----------------------------------------------------
A---------------------------------------------------3-3-3-3-3-3-3-3-3-2-3-4----
E---------------------------1-1-1-1-1-1-1-1-1-1-3-5----------------------------
                                                                              

G------------------------------------------------------------------------------
D---0-0-0-0-0-0-0-0-0-0-0-0----------------------------------------------------
A---------------------------------------------------3-3-3-3-3-3-3-3-3-3-3-3----
E---------------------------1-1-1-1-1-1-1-1-1-1-1-1----------------------------
                                                                              

G------------------------------------------------------------------------------
D--------------------------------0-0-------------------------------------------
A---1-1-1-1-1-1-1-1-1-1-1-1--1-3-----3-1--0-0-0-0-0-0-0-0-0-0-0-0-0-0-0-0-0-0--
E------------------------------------------------------------------------------
                                                                              
Pre-Chorus.

G------------------------------------------------------------------------------
D-------------------5-4-2--------------------------5-4-2-----------------------
A--2-2-2-2-2-2-2-2--------5-4-2-0------------------------5-4-2-0--0-0-0-0-0-0--
E----------------------------------3-3-3-3-3-3-3-3-----------------------------
                                                                              

G------------------------------------------------------------------------------
D------7-5-4-------------------------------------------------5-4-2-------------
A-0-0--------7-5-4-5--2-2-2-2-2-2-2--2-0-0---0-----2-2-2-2-2-------5-4-2-0-----
E------------------------------------------3---2---------------------------3-3-
                                                                              
Insania 2016!!

G-----------------------------------|---
D-----------------------------------|---
A-----------------------------------|---
E--2-2-2-2-2-2-2-2-2-2-2-2-2-2-2-2--|---


Repeat Vocals, Bridge,Pre-Chorus and then:

Chorus.

G------------------------------------------------------------------------------
D--0-0-0-0-0-0-0-0-0-0-0-0-0-4-4-5-7-7-7-7-7-7-7-7-7-7-7-7-7-9-7---------------
A----------------------------------------------------------------9-------------
E------------------------------------------------------------------7-7-7-7-7---
                                                                              

G---------------------------------------------------------9-11-|---------------
D-------------------------------------------------9-11-12------|-0-0-0-0-0-0---
A------------------------9-9-9-9-9-9-9-9--9-10-12--------------|---------------
E-7-7-7-7-7-7-7-7-7-7-7----------------------------------------|---------------
                                                                              

G------------------------------------------------------------------------|-----
D-0-0-0-0-0-0-0-0-0-0----------------------------------------------------|-----
A---------------------0-0-0-0-0-0-0-0-0-0-0-0-0-0-0-0--------------------|-----
E-----------------------------------------------------3-3-3-3-3-3-3-3--2-|-----
                                                                              

Riff 1.

G------------------------------------------------------------------------------
D------------------------7-9-9-9-7----------------------------------7----------
A--7-7-7-7-7-7-7-7--7-10-----------10------------------7-8-10-10-10----7-7-7---
E--------------------------------------8-8-8-8-8-8-7-8-------------------------
                                                                              

G-------------------9-----7-------------------------------------------------|--
D---------------7-8---9-7-------------------0-0-0-0-0-12-0-12-0-12-12-12-12-|--
A-7-7-7-7--7-10-------------------------------------------------------------|--
E----------------------------8-8-8-8-8-8-8----------------------------------|--
                                                                              
Solo.

G------------------------------------------------------------4-4-4-4-------4-4-
D--2-2-2-2-2-2-2-2-----------------0-0-0-0-0-0-0-0-2-2-2-2---------------------
A------------------2-2-2-2-2-2-2-2--------------------------2-2-2-2-2-3-3-2-2--
E------------------------------------------------------------------------------
                                                                              

G--4------||-------------------------------------------------------------||----
D---------||--2-2-2-2-0-0-0-0-----------------2-2-2-2-0-0-0-0------------||----
A-2-2-3-3-||------------------3-3-3-3-2-2-2-2------------------3-2-------||----
E---------||-------------------------------------------------------3-2-0-||----
                                                                              

G------------------------------------------------------------------------------
D----------------------------------2-2-2-2-2-2-2-2-2-2-2-2-2-2-2-2-------------
A--0-0-0-0-0-0-0-0-0-0-0-0-0-0-0-0----------------------------------0-0-0-0-0--
E------------------------------------------------------------------------------
                                                                              

G------------------------------------------------------------|---
D-------2-2-2-2-2-2-2-2-----------------2-2-2-2-2-2-2-2------|---
A-0-0-0-----------------0-0-0-0-0-0-0-0-------------------2--|---
E------------------------------------------------------------|---
                                                                              
Repeat Pre-Chorus and then:

Chorus II.

G------------------------------------------------------------------------------
D--0-0-0-0-0-0-0-0-0-0-0-0-0-4-4-5-7-7-7-7-7-7-7-7-7-7-7-7-7-9-7---------------
A----------------------------------------------------------------9-------------
E------------------------------------------------------------------7-7-7-7-7---
                                                                              

G---------------------------------------------------------9-11-|---------------
D-------------------------------------------------9-11-12------|-0-0-0-0-0-0---
A------------------------9-9-9-9-9-9-9-9--9-10-12--------------|---------------
E-7-7-7-7-7-7-7-7-7-7-7----------------------------------------|---------------
                                                                              

G--------------------------------------------------------------------------------------|--
D-0-0-0-0-0-0-0-0-0-0------------------------------------------------------------------|--
A---------------------0-0-0-0-0-0-0-0-0-0-0-0-0-0-0-0----------------------------------|--
E-----------------------------------------------------3-3-3-3-3-3-3-3-2-2-2-2-2-2-2-2--|--

Riff II.

G-----------------------------------------------------------------------------
D------------------------7-9-9-9-7--------------------------------------------
A--7-7-7-7-7-7-7-7--7-10-----------10-----------------------------------------
E--------------------------------------8-8-8-8-8-8-7-8-8-8-8-8-8-8-8-8--------
                                                                              

G-------------------9-----7--------------------------------------|--
D---------------7-8---9-7-------------------0-0-0-0-0-0-0-0-0-0--|--
A-7-7-7-7--7-10--------------------------------------------------|--
E----------------------------8-8-8-8-8-8-8-----------------------|--


G-----------------------|---
D-----------------------|---
A--7--5--7--5--7-7-5-7--|---
E-----------------------|---
                                                                              

End.
  development and support by
dmitry ivanov