rock
 
|tablatures   |lyrics   |discussion forums   |more tabs @ XGuitar.com

Helloween tabs

Time guitar tab

Helloween - Time
Tabbed By: Mad_Dog
Email: Hoppetau_smaker_drit@hotmail.com

Tuning: Standard (E A D G B E)

This is a really relaxing song.... love it.. so hopefully you'll find some sense in my tab.

Intro/Riff.

e:-------------------------------------------------------------------|
B:-------------------------------------------------------------------|
G:--------------0--------------0--------------0----------0-----------|
D:------0---0----------0---0----------0----0---------0-----0---------|
A:----1---1---1------3---3---3------1---1---1------3---3-----3-------|
E:--3--------------1--------------3--------------1-------------------|

(Repeat many times)

The basic chords are G5 and F5)

Interlude/Outro

e:-------------------------------------------------------------------|
B:-------------------------------------------------------------------|
G:--------------------------------------------------------------5--5-|
D:----------0----------------3----------------0-----------5-----5--5-|
A:----1-0-1---1-0-1----1-0-1---1-0-1----1-0-1---1-0-1---3---3---3--3-|
E:--3----------------1----------------3---------------0--------------|
  development and support by
dmitry ivanov