rock
 
|tablatures   |lyrics   |discussion forums   |more tabs @ XGuitar.com

Helloween tabs

Time bass tab

G||-------------------|-------------------|-------------------|
D||-------------------|-------------------|-------------------|
A||-------------------|-------------------|-------------------|
E||--3----------------|--1----------------|--3----------------|



--------------------||--------------------|-------------------|
--------------------||*-------------------|-------------------|
--0-----------------||*-------------------|-------------------|
-----------1--------||---3----------------|--1----------------|


                                         9x
-------------------|---------------------||---------------------------|
-------------------|--------------------*||*--------------------------|
-------------------|--0-----------------*||*--------------------------|
--3----------------|-----------1---------||---3--3--3--3--3--3--3--0--|



--------------------------|--------------------------|
--------------------------|--------------------------|
--------------------------|--------------------------|
--1--1--1--1--1--1--1--0--|--3--3--3--3--3--3--3--0--|



---------------------------||--------------------------|
--------------------------*||--------------------------|
--------------------------*||--------------------------|
--5--5--5--0--1--1--1--0---||--3--3--3--3--3--3--3--3--|



--------------------------|--------------------------|
--------------------------|--------------------------|
--3--3--3--3--3--3--3--3--|--6--6--6--6--6--6--6--6--|
--------------------------|--------------------------|



--------------------------|-------------------|-------------------|
--3--3--3--3--3--3--3--3--|--5----------------|--5----------------|
--------------------------|-------------------|--6----------------|
--------------------------|-------------------|-------------------|



------------------|----------------------|----------------------|
------------------|-------------------5--|-------------5--------|
------------------|-------------0--3-----|----------------0--3--|
------------------|--3-------------------|--1-------------------|



----------------------|--------------------||-----------------------|
-------------------5--|--------------------||*-------------------5--|
-------------0--3-----|--0-----------------||*-------------0--3-----|
--3-------------------|-----------1--------||---3-------------------|


                                                                   9x
----------------------|----------------------|---------------------||
-------------3--------|-------------------5--|--------------------*||
----------------0--3--|-------------0--3-----|--0-----------------*||
--1-------------------|--3-------------------|-----------1---------||



---------------------------|--------------------------|
*--------------------------|--------------------------|
*--------------------------|--------------------------|
---3--3--3--3--3--3--3--0--|--1--1--1--1--1--1--1--0--|



--------------------------|---------------------------||
--------------------------|--------------------------*||
--------------------------|--------------------------*||
--3--3--3--3--3--3--3--0--|--5--5--5--0--1--1--1--0---||



--------------------------|--------------------------|
--------------------------|--------------------------|
--------------------------|--3--3--3--3--3--3--3--3--|
--3--3--3--3--3--3--3--3--|--------------------------|



--------------------------|--------------------------|
--------------------------|--3--3--3--3--3--3--3--3--|
--6--6--6--6--6--6--6--6--|--------------------------|
--------------------------|--------------------------|



|---------------------------|--------------------------|
|*--------------------------|--------------------------|
|*--------------------------|--------------------------|
|---3--3--3--3--3--3--3--3--|--1--1--1--1--1--1--1--1--|



--------------------------|---------------------------||
--------------------------|--------------------------*||
--------------------------|--3--3--3--3--3--3--3--3--*||
--3--3--3--3--3--3--3--3--|---------------------------||



--------------------------|--------------------------|
--------------------------|--------------------------|
--------------------------|--3--3--3--3--3--3--3--3--|
--3--3--3--3--3--3--3--3--|--------------------------|



--------------------------|--------------------------|
--------------------------|--3--3--3--3--3--3--3--3--|
--6--6--6--6--6--6--6--6--|--------------------------|
--------------------------|--------------------------|



|---------------------------|--------------------------|
|*--------------0-----------|--------------3-----------|
|*-----1--0--1-----1--0--1--|-----1--0--1-----1--0--1--|
|---3-----------------------|--2-----------------------|



--------------------------|--------------------------||
--------------1-----------|--------5-----5----------*||
-----1--0--1-----1--0--1--|-----3-----3-------3/-0--*||
--3-----------------------|--0-----------------------||



--------------------------|--------------------------|
--------------0-----------|--------------3-----------|
-----1--0--1-----1--0--1--|-----1--0--1-----1--0--1--|
--3-----------------------|--2-----------------------|



--------------------------|-------------------------|--------------------------|
--------------1-----------|--------5-----5----------|--------------0-----------|
-----1--0--1-----1--0--1--|-----3-----3-------3/-0--|-----1--0--1-----1--0--1--|
--3-----------------------|--0----------------------|--3-----------------------|



--------------------------|--------------------------|-------------------------|
--------------3-----------|--------------1-----------|--------5-----5----------|
-----1--0--1-----1--0--1--|-----1--0--1-----1--0--1--|-----3-----3-------3/-0--|
--2-----------------------|--3-----------------------|--0----------------------|



--------------------------|--------------------------|
--------------0-----------|--------------3-----------|
-----1--0--1-----1--0--1--|-----1--0--1-----1--0--1--|
--3-----------------------|--2-----------------------|



--------------------------|-------------------------|
--------------1-----------|--------5-----5----------|
-----1--0--1-----1--0--1--|-----3-----3-------3/-0--|
--3-----------------------|--0----------------------|



|---------------------------|--------------------------|
|*--------------------------|--------------------------|
|*--------------------------|--------------------------|
|---3--3--3--3--3--3--3--0--|--1--1--1--1--1--1--1--0--|



--------------------------|---------------------------||
--------------------------|--------------------------*||
--------------------------|--------------------------*||
--3--3--3--3--3--3--3--0--|--5--5--5--0--1--1--1--0---||



--------------------------|--------------------------|
--------------------------|--------------------------|
--------------------------|--3--3--3--3--3--3--3--3--|
--3--3--3--3--3--3--3--3--|--------------------------|



--------------------------|--------------------------|
--------------------------|--3--3--3--3--3--3--3--3--|
--6--6--6--6--6--6--6--6--|--------------------------|
--------------------------|--------------------------|



|---------------------------|--------------------------|
|*--------------------------|--------------------------|
|*--------------------------|--------------------------|
|---3--3--3--3--3--3--3--3--|--1--1--1--1--1--1--1--1--|



--------------------------|---------------------------||
--------------------------|--------------------------*||
--------------------------|--3--3--3--3--3--3--3--3--*||
--3--3--3--3--3--3--3--3--|---------------------------||



--------------------------|--------------------------|
--------------------------|--------------------------|
--------------------------|--3--3--3--3--3--3--3--3--|
--3--3--3--3--3--3--3--3--|--------------------------|



--------------------------|--------------------------|
--------------------------|--3--3--3--3--3--3--3--3--|
--6--6--6--6--6--6--6--6--|--------------------------|
--------------------------|--------------------------|



|---------------------------|--------------------------|
|*--------------------------|--------------------------|
|*--------------------------|--------------------------|
|---3--3--3--3--3--3--3--3--|--1--1--1--3--1--1--1--1--|



--------------------------|-------------------------||-------------------|
--------------------------|------------------------*||--5----------------|
--------------------------|---------------3--3--3--*||--6----------------|
--3--3--3--3--3--3--3--3--|----5--5--5--------------||-------------------|



------------------|-------------------|-------------------|-------------------|
------------------|-------------------|-------------------|-------------------|
------------------|-------------------|-------------------|-------------------|
------------------|--3----------------|--1----------------|--3----------------|



--------------------|-------------------|-------------------|
--------------------|-------------------|-------------------|
--0-----------------|-------------------|-------------------|
-----------1--------|--3----------------|--1----------------|



-------------------|--------------------|-------------------|
-------------------|--------------------|-------------------|
-------------------|--0-----------------|-------------------|
--3----------------|-----------1--------|--3----------------|



-------------------|-------------------|--------------------|
-------------------|-------------------|--------------------|
-------------------|-------------------|--0-----------------|
--1----------------|--3----------------|-----------1--------|



-------------------|-------------------|-------------------|
-------------------|-------------------|-------------------|
-------------------|-------------------|-------------------|
--3----------------|--1----------------|--3----------------|



--------------------|-------------------|-------------------|
--------------------|-------------------|-------------------|
--0-----------------|-------------------|-------------------|
-----------1--------|--3----------------|--1----------------|



-------------------|--------------------||
-------------------|--------------------||
-------------------|--0-----------------||
--3----------------|-----------1--------||
  development and support by
dmitry ivanov