rock
 
|tablatures   |lyrics   |discussion forums   |more tabs @ XGuitar.com

Helloween tabs

The Time Of The Oath guitar tab

The Time of the Oath
Helloween
by Eduardo Solórzano (edusolo@hotmail.com)

Parte A
e----------------------	
B----------------------
G----------------------
D----------------------
A----------5---------5-
D--0-0-0-0---0-0-0-0---

Parte B			Parte C
e-------------		e-------------------
b-------------		b-------------------
g-------------		g-------------------
D-------------		D-------------------
A----2-3---2--		A----2-3---2--------
D--3-----3----		D--3-----3---3-1-0--


e |---------------------------------------------------------------------------------------------
b |---------------------------------------------------------------------------------------------
g |*-2-------2-------2-----2\3-------3-------3-----3\5-------5-------5-----3-------2-------2\3--
D |*-2-------2-------2-----2\3-------3-------3-----3\5-------5-------5-----3-------2-------2\3--
A |---------------------------------------------------------------------------------------------
D |----0-0-0---0-0-0---0-0-----0-0-0---0-0-0---0-0-----0-0-0---0-0-0---0-0---0-0-0---0-0-0------

e -------------------------------------------------------------------------------------------------------|
b -------------------------------------------------------------------------------------------------------|
g --2-------2-------2-----2\3-------3-------3-----3\5-------5-------5-----3-------2--------------------*-|
D --2-------2-------2-----2\3-------3-------3-----3\5-------5-------5-----3-------2--------------------*-|
A ------------------------------------------------------------------------------------------3---2--------|
D ----0-0-0---0-0-0---0-0-----0-0-0---0-0-0---0-0-----0-0-0---0-0-0---0-0---0-0-0---0-0-3-5---3---3-1-0--|


e ---------------------------------
b ---------------------------------
g ---------------------------------
B ---------------------------------
A ------2-----3-----5-------3------
D --0-3---0-3---0-3---3-2-1---1-0--


Parte final da músic
e-----------------|--------------|
b--16-14-16----14-|-16-14-16-----|
g-----------16----|----------16--|
D-----------------|--------------|
A-----------------|--------------|
D-----------------|--------------|
  development and support by
dmitry ivanov