rock
 
|tablatures   |lyrics   |discussion forums   |more tabs @ XGuitar.com

Helloween tabs

The Time Of The Oath bass tab

tune down

F#||------------------|------------------|------------------|------------------|
C#||------------------|------------------|------------------|------------------|
G#||------------------|------------------|------------------|------------------|
C#||------------------|------------------|------------------|------------------|



------------------|----------|----------------------------|
------------------|----------|----------------------------|
------------------|----------|----------5----------5/-----|
------------------|----------|--0-0-0-0----0-0-0-0--------|



----------------------------|----------------------------|
----------------------------|----------------------------|
----------5----------5/-----|----------5----------5/-----|
--0-0-0-0----0-0-0-0--------|--0-0-0-0----0-0-0-0--------|



----------------------------|----------------------------|
----------------------------|----------------------------|
----------5----------5/-----|----------5----------5/-----|
--0-0-0-0----0-0-0-0--------|--0-0-0-0----0-0-0-0--------|



------------------------------|----------------------------|
------------------------------|----------------------------|
----------5----------3---2----|----------5----------5/-----|
--0-0-0-0----0-0-3-5---5------|--0-0-0-0----0-0-0-0--------|



----------------------------|----------------------------|
----------------------------|----------------------------|
----------5----------5/-----|----------5----------5/-----|
--0-0-0-0----0-0-0-0--------|--0-0-0-0----0-0-0-0--------|



--------------------------------|-------------------|------------------|
--------------------------------|-------------------|------------------|
----------5----------3---2------|-------------------|------------------|
--0-0-0-0----0-0-3-5---5---3-1--|--0----------------|------------------|



----------------------------|-----------------------------|
----------------------------|-----------------------------|
----------------------------|-----------------------------|
--7--0--0--7--0-0-0--7--0-0-|--7/8-0--0--8--0-0-0--8--0-0-|



--------------------------------|--------------------------|
--------------------------------|--------------------------|
--------------------------------|--------------------------|
--8/10-0--0--10--0-0-0--10--0-0-|--8--0--0--7--0--0-0-8~---|



----------------------------|-----------------------------|
----------------------------|-----------------------------|
----------------------------|-----------------------------|
--7--0--0--7--0-0-0--7--0-0-|--7/8-0--0--8--0-0-0--8--0-0-|



--------------------------------|-------------------------|
--------------------------------|-------------------------|
--------------------------------|--------3-----2----------|
--8/10-0--0--10--0-0-0--10--0-0-|--3--5-----5-----3--1----|



----------------------------|-----------------------------|
----------------------------|-----------------------------|
----------------------------|-----------------------------|
--7--0--0--7--0-0-0--7--0-0-|--7/8-0--0--8--0-0-0--8--0-0-|



--------------------------------|--------------------------|
--------------------------------|--------------------------|
--------------------------------|--------------------------|
--8/10-0--0--10--0-0-0--10--0-0-|--8--0--0--7--0--0-0-8~---|



----------------------------|-----------------------------|
----------------------------|-----------------------------|
----------------------------|-----------------------------|
--7--0--0--7--0-0-0--7--0-0-|--7/8-0--0--8--0-0-0--8--0-0-|



--------------------------------|-------------------------|
--------------------------------|-------------------------|
--------------------------------|--------3-----2----------|
--8/10-0--0--10--0-0-0--10--0-0-|--3--5-----5-----3--1----|



----------------------|-----------5--5-----------|--------------------------|
----------------------|--------5--------5--------|--------------------------|
----------------2-----|-----3--------------3-----|-----5-----------3--------|
--0----------2-----3--|--1--------------------1--|--3-----3--0--1-----1--0--|



------------------|----------------------|-----------5--5-----------|
------------------|----------------------|--------5--------5--------|
------------------|----------------2-----|-----3--------------3-----|
------------------|--0----------2-----3--|--1--------------------1--|



--------------------------|------------------|-------------------------------|
--------------------------|------------------|-------------------------------|
-----5-----------3--------|------------------|--3/5--------------------------|
--3-----3--0--1-----1--0--|------------------|------0-0-0--0-0-0--0-0-0--0-0-|



-------------------------------|-------------------------------|
-------------------------------|-------------------------------|
--3/5------------5-6-5-3-5-3---|--3/5--------------------------|
------0-0-0--0-0---------------|------0-0-0--0-0-0--0-0-0--0-0-|



-------------------------------|------------------------------|
-------------------------------|--------------------------5---|
--3/5------------5-6-5-3-5-3---|--0--0-0-0--0-0---0-0-5-7---7-|
------0-0-0--0-0---------------|------------------------------|



----------------------------|-------------------------------|
--5--7-7-7--7-7-------------|-------------------------------|
----------------8/7---8/7---|--3/5--------------------------|
----------------------------|------0-0-0--0-0-0--0-0-0--0-0-|



-------------------------------|----------------------------|
-------------------------------|----------------------------|
--3/5---------------3---2------|----------------------------|
------0-0-0--0-0-3----5---3-1--|--7--0--0--7--0-0-0--7--0-0-|



-----------------------------|--------------------------------|
-----------------------------|--------------------------------|
-----------------------------|--------------------------------|
--7/8-0--0--8--0-0-0--8--0-0-|--8/10-0--0--10--0-0-0--10--0-0-|



--------------------------|----------------------------|
--------------------------|----------------------------|
--------------------------|----------------------------|
--8--0--0--7--0--0-0-8~---|--7--0--0--7--0-0-0--7--0-0-|



-----------------------------|--------------------------------|
-----------------------------|--------------------------------|
-----------------------------|--------------------------------|
--7/8-0--0--8--0-0-0--8--0-0-|--8/10-0--0--10--0-0-0--10--0-0-|



-------------------------|----------------------------|
-------------------------|----------------------------|
--------3-----2----------|----------------------------|
--3--5-----5-----3--1----|--7--0--0--7--0-0-0--7--0-0-|



-----------------------------|--------------------------------|
-----------------------------|--------------------------------|
-----------------------------|--------------------------------|
--7/8-0--0--8--0-0-0--8--0-0-|--8/10-0--0--10--0-0-0--10--0-0-|



--------------------------|----------------------------|
--------------------------|----------------------------|
--------------------------|----------------------------|
--8--0--0--7--0--0-0-8~---|--7--0--0--7--0-0-0--7--0-0-|



-----------------------------|--------------------------------|
-----------------------------|--------------------------------|
-----------------------------|--------------------------------|
--7/8-0--0--8--0-0-0--8--0-0-|--8/10-0--0--10--0-0-0--10--0-0-|



-------------------------|----------------------|-----------5--5-----------|
-------------------------|----------------------|--------5--------5--------|
--------3-----2----------|----------------2-----|-----3--------------3-----|
--3--5-----5-----3--1----|--0----------2-----3--|--1--------------------1--|



--------------------------|------------------|----------------------|
--------------------------|------------------|----------------------|
-----5-----------3--------|------------------|----------------2-----|
--3-----3--0--1-----1--0--|------------------|--0----------2-----3--|



-----------5--5-----------|--------------------------|------------------|
--------5--------5--------|--------------------------|------------------|
-----3--------------3-----|-----5-----------3--------|------------------|
--1--------------------1--|--3-----3--0--1-----1--0--|------------------|



-------------------------------|-------------------------------|
-------------------------------|-------------------------------|
--3/5--------------------------|--3/5------------5-6-5-3-5-3---|
------0-0-0--0-0-0--0-0-0--0-0-|------0-0-0--0-0---------------|



-------------------------------|-------------------------------|
-------------------------------|-------------------------------|
--3/5--------------------------|--3/5------------5-6-5-3-5-3---|
------0-0-0--0-0-0--0-0-0--0-0-|------0-0-0--0-0---------------|



------------------------------|----------------------------|
--------------------------5---|--5--7-7-7--7-7-------------|
--0--0-0-0--0-0---0-0-5-7---7-|----------------8/7---8/7---|
------------------------------|----------------------------|



-------------------------------|--------------------------------|
-------------------------------|--------------------------------|
--3/5--------------------------|--3/5----------------3---2------|
------0-0-0--0-0-0--0-0-0--0-0-|------0-0-0--0-0-3-5---5---3-1--|



---------------------|---------------------|---------------------|
---------------------|---------------------|---------------------|
---------------------|-------------------3-|---------------------|
--0----0--------0----|------0--------0-----|------0----0----0----|



----------------------|----------------------------|
----------------------|----------------------------|
----------------------|----------5----------5/-----|
--0----0----0----0----|--0-0-0-0----0-0-0-0--------|



----------------------------|----------------------------|
----------------------------|----------------------------|
----------5----------5/-----|----------5----------5/-----|
--0-0-0-0----0-0-0-0--------|--0-0-0-0----0-0-0-0--------|



------------------------------|----------------------------|
------------------------------|----------------------------|
----------5----------3---2----|----------5----------5/-----|
--0-0-0-0----0-0-3-5---5------|--0-0-0-0----0-0-0-0--------|



----------------------------|----------------------------|
----------------------------|----------------------------|
----------5----------5/-----|----------5----------5/-----|
--0-0-0-0----0-0-0-0--------|--0-0-0-0----0-0-0-0--------|



------------------------------|----------------------------|
------------------------------|----------------------------|
----------5----------3---2----|----------5----------5/-----|
--0-0-0-0----0-0-3-5---5------|--0-0-0-0----0-0-0-0--------|



----------------------------|----------------------------|
----------------------------|----------------------------|
----------5----------5/-----|----------5----------5/-----|
--0-0-0-0----0-0-0-0--------|--0-0-0-0----0-0-0-0--------|



------------------------------|-------------------------------|
------------------------------|-------------------------------|
----------5----------3---2----|----------5----------5------5--|
--0-0-0-0----0-0-3-5---5------|--0-0-0-0----0-0-0-0----0-0----|



-------------------------------|-------------------------------|
-------------------------------|-------------------------------|
------3---5----------5------5--|------3---5----------5------5--|
--3-5---5----0-0-0-0----0-0----|--3-5---5----0-0-0-0----0-0----|



------------------------------|----------------------------------|
------------------------------|--------------------------5-5-5-7-|
------3---5----------3---2----|--5-5-5-5-5-5-5-5-5-3-5/8---------|
--3-5---5----0-0-3-5---5------|----------------------------------|



--5-5-5-5-7-5---5---------------|------------------------------|
--------------7----7-6-5-5------|------------------------------|
---------------------------8-5--|------5------5------3------3--|
--------------------------------|--0-0----0-0----0-0----0-0----|



------------------------------|------------------------5-7-5---5-|
------------------------------|------------------5-6-7-------7---|
------2------2------1------0--|--------3-5-7-8-5-----------------|
--0-0----0-0----0-0----0-0----|--0-0-0---------------------------|



-------------5---7----5--------|------------------------------|
--7-6-5-6-7----7----7---6-5----|------------------------------|
----------------------------8--|------5------5------3------3--|
-------------------------------|--0-0----0-0----0-0----0-0----|



------------------------------|----------------------------------|
------------------------------|----------------------------------|
------2------2------1------0--|--5-5-5-5-5-5-5-5-5-5-5-5-5-5-5-5-|
--0-0----0-0----0-0----0-0----|----------------------------------|



----------------------------------|----------------------------------|
----------------------------------|----------------------------------|
----------------------------------|--3-3-3-3-3-3-3-3-3-3-3-3-3-3-3-3-|
--8-8-8-8-8-8-8-8-8-8-8-8-8-8-8-8-|----------------------------------|



---------------7--5---5--------|----------------------------------|
-----------5-7------7---7-5----|----------------------------------|
--5--8-5-8------------------8--|--5-5-5-5-5-5-5-5-5-5-5-5-5-5-5-5-|
-------------------------------|----------------------------------|



----------------------------------|----------------------------------|
----------------------------------|----------------------------------|
----------------------------------|--3-3-3-3-3-3-3-3-3-3-3-3-3-3-3-3-|
--8-8-8-8-8-8-8-8-8-8-8-8-8-8-8-8-|----------------------------------|



-------------------|-----------------------------|----------------------|
-------------------|-----------------------------|----------------------|
--5----------------|------3---2------------------|----------------2-----|
-------------------|--3-5---5---3-0--3--5--1--3--|--0----------2-----3--|



-----------5--5-----------|--------------------------|------------------|
--------5--------5--------|--------------------------|------------------|
-----3--------------3-----|-----5-----------3--------|------------------|
--1--------------------1--|--3-----3--0--1-----1--0--|------------------|



----------------------|-----------5--5-----------|--------------------------|
----------------------|--------5--------5--------|--------------------------|
----------------2-----|-----3--------------3-----|-----5-----------3--------|
--0----------2-----3--|--1--------------------1--|--3-----3--0--1-----1--0--|



--------------------------|-------------------------------|
--------------------------|-------------------------------|
--------------------------|--3/5--------------------------|
--0--0--0--0--0--0--0--0--|------0-0-0--0-0-0--0-0-0--0-0-|



-------------------------------|-------------------------------|
-------------------------------|-------------------------------|
--3/5------------5-6-5-3-5-3---|--3/5--------------------------|
------0-0-0--0-0---------------|------0-0-0--0-0-0--0-0-0--0-0-|



-------------------------------|--------------------------5----|
-------------------------------|---------------5----5-6-7----7-|
--3/5------------5-6-5-3-5-3---|--0--0-0-5-6-7----7------------|
------0-0-0--0-0---------------|-------------------------------|



--7------------------------|-------------------------------|
-----7-7-5---7-------------|-------------------------------|
---------------8/7---8/7---|--3/5--------------------------|
---------------------------|------0-0-0--0-0-0--0-0-0--0-0-|



--------------------------------|-------------------------------|
--------------------------------|-------------------------------|
--3/5----------------3---2------|--3/5--------------------------|
------0-0-0--0-0-3-5---5---3-1--|------0-0-0--0-0-0--0-0-0--0-0-|



-------------------------------|-------------------------------|
-------------------------------|-------------------------------|
--3/5------------5-6-5-3-5-3---|--3/5--------------------------|
------0-0-0--0-0---------------|------0-0-0--0-0-0--0-0-0--0-0-|



-------------------------------|--------------------------5----|
-------------------------------|---------------5----5-6-7----7-|
--3/5------------5-6-5-3-5-3---|--0--0-0-5-6-7----7------------|
------0-0-0--0-0---------------|-------------------------------|



--7------------------------|-------------------------------|
-----7-7-5---7-------------|-------------------------------|
---------------8/7---8/7---|--3/5--------------------------|
---------------------------|------0-0-0--0-0-0--0-0-0--0-0-|



--------------------------------|----------------------------|
--------------------------------|----------------------------|
--3/5----------------3---2------|----------------------------|
------0-0-0--0-0-3-5---5---3-1--|--7--0--0--7--0-0-0--7--0-0-|



-----------------------------|--------------------------------|
-----------------------------|--------------------------------|
-----------------------------|--------------------------------|
--7/8-0--0--8--0-0-0--8--0-0-|--8/10-0--0--10--0-0-0--10--0-0-|



--------------------------|----------------------------|
--------------------------|----------------------------|
--------------------------|----------------------------|
--8--0--0--7--0--0-0-8~---|--7--0--0--7--0-0-0--7--0-0-|



-----------------------------|--------------------------------|
-----------------------------|--------------------------------|
-----------------------------|--------------------------------|
--7/8-0--0--8--0-0-0--8--0-0-|--8/10-0--0--10--0-0-0--10--0-0-|



--------------------------|----------------------------|
--------------------------|----------------------------|
-----------------------1--|----------------------------|
--0--5--4--3--2--0--1-----|--7--0--0--7--0-0-0--7--0-0-|



-----------------------------|--------------------------------|
-----------------------------|--------------------------------|
-----------------------------|--------------------------------|
--7/8-0--0--8--0-0-0--8--0-0-|--8/10-0--0--10--0-0-0--10--0-0-|



--------------------------|----------------------------|
--------------------------|----------------------------|
--------------------------|----------------------------|
--8--0--0--7--0--0-0-8~---|--7--0--0--7--0-0-0--7--0-0-|



-----------------------------|--------------------------------|
-----------------------------|--------------------------------|
-----------------------------|--------------------------------|
--7/8-0--0--8--0-0-0--8--0-0-|--8/10-0--0--10--0-0-0--10--0-0-|



--------------------------|----------------------------|
--------------------------|----------------------------|
--------------------------|----------------------------|
--8--0--0--7--0--0-0-8~---|--7--0--0--7--0-0-0--7--0-0-|



-----------------------------|--------------------------------|
-----------------------------|--------------------------------|
-----------------------------|--------------------------------|
--7/8-0--0--8--0-0-0--8--0-0-|--8/10-0--0--10--0-0-0--10--0-0-|



--------------------------|----------------------------|
--------------------------|----------------------------|
--------------------------|----------------------------|
--8--0--0--7--0--0-0-8~---|--7--0--0--7--0-0-0--7--0-0-|



-----------------------------|--------------------------------|
-----------------------------|--------------------------------|
-----------------------------|--------------------------------|
--7/8-0--0--8--0-0-0--8--0-0-|--8/10-0--0--10--0-0-0--10--0-0-|



-------------------------|----------------------|----------------------------|
-------------------------|----------------------|----------------------------|
--------3-----2----------|--3--------3--3--3----|----------5----------5/-----|
--3--5-----5-----3--1----|----------------------|--0-0-0-0----0-0-0-0--------|



------------------|------------------||
------------------|------------------||
------------------|------------------||
------------------|------------------||
  development and support by
dmitry ivanov