rock
 
|tablatures   |lyrics   |discussion forums   |more tabs @ XGuitar.com

Helloween tabs

The Dark Ride guitar tab

Helloween- The Dark Ride

^=bend
~=let ring

Hey...this is my first tab and it seems right...Helloween rocks and The Dark Ride is a great album and if anybody nows the tab for We *** The Night off the dark ride please submit it...


------------------------------------------
-10--12--12--------15---12---10-----------
------------------------------------------
------------------------------------------
------------------------------------------
------------------------------------------

------------------------------------------
-10--12--12--------10---7---8-------------
-----------------------------------9------
------------------------------------------
------------------------------------------
------------------------------------------

-----------------------------------------------------------------------
-----------------------------------------------------------------------
-----------------------------------------------------------------------
-----------------------------------------------------------------------
-2--2--2--2--2--2--2--2--2--2--2--2--2--2--2--2------------------------
-0--0--0--0--0--0--0--0--0--0--0--0--0--0--0--0------------------------

-----------------------------------------------------------------------
-----------------------------------------------------------------------
-7--7--7--7--7--7--7--7--7--7--7--7--7--7--7--7------------------------
-7--7--7--7--7--7--7--7--7--7--7--7--7--7--7--7------------------------
-5--5--5--5--5--5--5--5--5--5--5--5--5--5--5--5------------------------
-5--5--5--5--5--5--5--5--5--5--5--5--5--5--5--5------------------------

-----------------------------------------------------------------------
-----------------------------------------------------------------------
-----------------------------------------------------------------------
-2--2--2--2--2--2--2--2--2--2--2--2--2--2--2--2------------------------
-0--0--0--0--0--0--0--0--0--0--0--0--0--0--0--0------------------------
-----------------------------------------------------------------------

------------------------------------------------------------
------------------------------------------------------------
------------------------------------------------------------
------------------------------------------------------------
-2--2--2--2--2--2--2--2--2--2--5--5/4--4/3--3---------------
-0--0--0--0--0--0--0--0--0--0--3--3/2--2/1--1---------------

"Standing in line...."

--------------------------------------------------------
--------------------------------------------------------
--------------------------------------------------------
--------------------------------------------------------
-2----2----2----2----2----2----2----2-------------------
-0----0----0----0----0----0----0----0-------------------X2

--------------------------------------------------------
--------------------------------------------------------
-7----7----7----7----7----7----7----7-------------------
-7----7----7----7----7----7----7----7-------------------
-5----5----5----5----5----5----5----5-------------------
-5----5----5----5----5----5----5----5------------------- X2

--------------------------------------------------------
--------------------------------------------------------
--------------------------------------------------------
-2----2----2----2----2----2----2----2-------------------
-0----0----0----0----0----0----0----0-------------------
--------------------------------------------------------X2

--------------------------------------------------------
--------------------------------------------------------
--------------------------------------------------------
--------------------------------------------------------
-2----2----2----2----2----2----2----2-------------------
-0----0----0----0----0----0----0----0-------------------

----------------------------------------------------------
----------------------------------------------------------
----------------------------------------------------------
----------------------------------------------------------
-2----2----5----5----4----4----3----3---------------------
-0----0----3----3----2----2----1----1---------------------

--------------------------------------------------------
--------------------------------------------------------
--------------------------------------------------------
--------------------------------------------------------
-2----2----2----2----2----2----2----2-------------------
-0----0----0----0----0----0----0----0-------------------X2

--------------------------------------------------------
--------------------------------------------------------
-7----7----7----7----7----7----7----7-------------------
-7----7----7----7----7----7----7----7-------------------
-5----5----5----5----5----5----5----5-------------------
-5----5----5----5----5----5----5----5-------------------

--------------------------------------------------------
--------------------------------------------------------
-7----7----7----7----7----7-----------------------------
-7----7----7----7----7----7----7----7-------------------
-5----5----5----5----5----5----5----5-------------------
-5----5----5----5----5----5----5----5----5--------------

------------------------------------------
------------------------------------------
-2---------------2------------------------
-2---------------2------------------------
-0---------------0------------------------
------------------------------------------

------------------------------------------
------------------------------------------
------------------------------------------
------------------------------------------
--5-----4-----3---------------------------
--3-----2-----1---------------------------

------------------------------------------------------------------------------
------------------------------------------------------------------------------
------------------------------------------------------------------------------
------------------------------------------------------------------------------
------------------------------------------------------------------------------
-12p0---0---0---0---0---0---12p0---0---0---0---0---0---12p0-------------------

-----------------------------------------------------------------------------------
-----------------------------------------------------------------------------------
-----------------------------------------------------------------------------------
-----------------------------------------------------------------------------------
-----------------------------------------------------------------------------------
-0---0---0---0---0---0---12p0---0---12p0---0---12p0---0---12p0---------------------

------------------------------------------------------------------------
------------------------------------------------------------------------
------------------------------------------------------------------------
------------------------------------------------------------------------
------------------------------------------------------------------------
-0---12p0---0---0---0---0---0---0---0---12p0---0---0---0----------------

-----------------------------------------------------------------------------
-----------------------------------------------------------------------------
-----------------------------------------------------------------------------
-----------------------------------------------------------------------------
-----------------------------------------------------------------------------
-0---0---12p0---0---0---0---0---0---0---0---12p0---0---0---0-----------------

------------------------------------------------------------------------------
------------------------------------------------------------------------------
------------------------------------------------------------------------------
------------------------------------------------------------------------------
------------------------------------------------------------------------------
-0---0---12p0---0---0---0---0---0---12p0---0---12p0---0---0-------------------

---------------------------------------------------------------------------
---------------------------------------------------------------------------
---------------------------------------------------------------------------
---------------------------------------------------------------------------
---------------------------------------------------------------------------
-0---8p0---0---8p0---0---0---8p0---0---8p0---0---8p0---0-------------------

-------------------------------------------------------------------------------
-------------------------------------------------------------------------------
-------------------------------------------------------------------------------
-------------------------------------------------------------------------------
-------------------------------------------------------------------------------
-0---10p0---0---10p0---0---10p0---0---10p0---0---10p0---0----------------------

------------------------------------------------------------------------------
------------------------------------------------------------------------------
------------------------------------------------------------------------------
------------------------------------------------------------------------------
------------------------------------------------------------------------------
-0---12p0---0---0---0---0---12p0---0---0---0---0---12p0---0-------------------

----------------------------------------------------------------------------
----------------------------------------------------------------------------
----------------------------------------------------------------------------
----------------------------------------------------------------------------
---------------------------------------5---5---2---2---5---5---2---2--------
-3---3---0---0---2---2---0---0----------------------------------------------

------------------------------------------------------------------------------
------------------------------------------------------------------------------
------------------------------------------------------------------------------
------------------------------------------------------------------------------
------------------------------------------------------------------------------
-12p0---0---0---0---0---0---12p0---0---0---0---0---0---12p0-------------------

-----------------------------------------------------------------------------------
-----------------------------------------------------------------------------------
-----------------------------------------------------------------------------------
-----------------------------------------------------------------------------------
-----------------------------------------------------------------------------------
-0---0---0---0---0---0---12p0---0---12p0---0---12p0---0---12p0---------------------

------------------------------------------------------------------------
------------------------------------------------------------------------
------------------------------------------------------------------------
------------------------------------------------------------------------
------------------------------------------------------------------------
-0---12p0---0---0---0---0---0---0---0---12p0---0---0---0----------------

------------------------------------------------------------------------------
------------------------------------------------------------------------------
------------------------------------------------------------------------------
------------------------------------------------------------------------------
------------------------------------------------------------------------------
-0---0---12p0---0---0---0---0---0---12p0---0---12p0---0---0-------------------

---------------------------------------------------------------------------
---------------------------------------------------------------------------
---------------------------------------------------------------------------
---------------------------------------------------------------------------
---------------------------------------------------------------------------
-0---8p0---0---8p0---0---0---8p0---0---8p0---0---8p0---0-------------------

-----------------------------------------------------------------------
-----------------------------------------------------------------------
-----------------------------------------------------------------------
-----------------------------------------------------------------------
-----------------------------------------------------------------------
-5p0---0---0---5p0---0---0---5p0---0---0---5p0---0---0-----------------

------------------------------------------------------------
------------------------------------------------------------
------------------------------------------------------------
------------------------------------------------------------
------------------------------------------------------------
-5h7--7--7--7--5h7--7--7--7--7--5h7--7--7--7----------------

------------------------------------------
------------------------------------------
------------------------------------------
------------------------------------------
-7----9------7----9-----------------------
-5----7------5----7-----------------------

-----------------------------------------------------------------------------
-----------------------------------------------------------------------------
-----------------------------------------------------------------------------
-9---9------------7---7------------10---10------------7---7------------------
----------7---7------------7---7----------------7---7------------7---7-------
----------------------------------------------------------------------------- X2

--------------------------------------------------------------------------
--------------------------------------------------------------------------
--------------------------------------------------------------------------
-7---7------------5---5------------9---9------------5---5-----------------
----------5---5------------5---5------------5---5------------5---5--------
--------------------------------------------------------------------------

--------------------------------------------------------------------------
--------------------------------------------------------------------------
--------------------------------------------------------------------------
-9---9------------7---7------------9---9------------7---7-----------------
----------6---6------------6---6------------6---6------------6---6--------
--------------------------------------------------------------------------

-------------------------------------------------------------------------
-------------------------------------------------------------------------
-------------------------------------------------------------------------
-5---5------------5---5------------5---5------------5---5----------------
----------3---3------------3---3------------3---3------------3---3-------
-------------------------------------------------------------------------

-------------------------------------------------------------------------
-------------------------------------------------------------------------
-------------------------------------------------------------------------
-4---4------------4---4------------4---4------------4---4----------------
----------2---2------------2---2------------2---2------------2---2-------
-------------------------------------------------------------------------

----------------------------------------------------------------------------
----------------------------------------------------------------------------
----------------------------------------------------------------------------
-2---2---2---2---2---2---2---2---4---4---4---4---4---4---4---4--------------
----------------------------------------------------------------------------
----------------------------------------------------------------------------

-------------------------------------------------------------
-------------------------------------------------------------
-------------------------------------------------------------
-5---5---5---5---5---5---5---5---7---7---7---7---7-----------
-------------------------------------------------------------
-------------------------------------------------------------

-----------------------------------------------------------------------------
-----------------------------------------------------------------------------
-----------------------------------------------------------------------------
-9---9------------7---7------------10---10------------7---7------------------
----------7---7------------7---7----------------7---7------------7---7-------
----------------------------------------------------------------------------- X2

--------------------------------------------------------------------------
--------------------------------------------------------------------------
--------------------------------------------------------------------------
-7---7------------5---5------------9---9------------5---5-----------------
----------5---5------------5---5------------5---5------------5---5--------
--------------------------------------------------------------------------

--------------------------------------------------------------------------
--------------------------------------------------------------------------
--------------------------------------------------------------------------
-9---9------------7---7------------9---9------------7---7-----------------
----------6---6------------6---6------------6---6------------6---6--------
--------------------------------------------------------------------------

-------------------------------------------------------------------------
-------------------------------------------------------------------------
-------------------------------------------------------------------------
-5---5------------5---5------------5---5------------5---5----------------
----------3---3------------3---3------------3---3------------3---3-------
-------------------------------------------------------------------------

-------------------------------------------------------------------------
-------------------------------------------------------------------------
-------------------------------------------------------------------------
-4---4------------4---4------------4---4------------4---4----------------
----------2---2------------2---2------------2---2------------2---2-------
-------------------------------------------------------------------------

-------------------------------------------------------------------
-------------------------------------------------------------------
-4--4---------4--4---------4--4---------4--4-----------------------
--------2--2---------2--2---------2--2---------2--2-------0--------
-------------------------------------------------------------------
-------------------------------------------------------------------

--------------------------------------------
--------------------------------------------
--------------------------------------------
--------------------------------------------
-----------2------------------------2--------
-0----0----0----0----0----0----0----0-------X2

---------------------------------------------
---------------------------------------------
---------------------------------------------
-----------7------------------------7--------
-5----5----5----5----5----5----5----5--------
---------------------------------------------X2

---------------------------------------------
---------------------------------------------
---------------------------------------------
-----------2------------------------2--------
-0----0----0----0----0----0----0----0--------
---------------------------------------------X2

--------------------------------------------
--------------------------------------------
--------------------------------------------
--------------------------------------------
-----------2------------------------2-------
-0----0----0----0----0----0----0----0-------

--------------------------------------------
--------------------------------------------
--------------------------------------------
--------------------------------------------
------2----5----5----4----4----3----3-------
-0----0----3----3----2----2----1----1-------

--------------------------------------------
--------------------------------------------
--------------------------------------------
--------------------------------------------
-----------2------------------------2-------
-0----0----0----0----0----0----0----0-------X2


---------------------------------------------
---------------------------------------------
---------------------------------------------
-----------7------------------------7--------
-5----5----5----5----5----5----5----5--------
---------------------------------------------X2

---------------------------------------------
---------------------------------------------
---------------------------------------------
-----------2------------------------2--------
-0----0----0----0----0----0----0----0--------
---------------------------------------------X2

--------------------------------------------
--------------------------------------------
--------------------------------------------
--------------------------------------------
-----------2------------------------2-------
-0----0----0----0----0----0----0----0-------

--------------------------------------------
--------------------------------------------
--------------------------------------------
--------------------------------------------
-2--------------2~--------------------------
-0----0----0----0~--------------------------

------------------------------------------------------------------------------
------------------------------------------------------------------------------
------------------------------------------------------------------------------
------------------------------------------------------------------------------
------------------------------------------------------------------------------
-12p0---0---0---0---0---0---12p0---0---0---0---0---0---12p0-------------------

-----------------------------------------------------------------------------------
-----------------------------------------------------------------------------------
-----------------------------------------------------------------------------------
-----------------------------------------------------------------------------------
-----------------------------------------------------------------------------------
-0---0---0---0---0---0---12p0---0---12p0---0---12p0---0---12p0---------------------

------------------------------------------------------------------------
------------------------------------------------------------------------
------------------------------------------------------------------------
------------------------------------------------------------------------
------------------------------------------------------------------------
-0---12p0---0---0---0---0---0---0---0---12p0---0---0---0----------------

-----------------------------------------------------------------------------
-----------------------------------------------------------------------------
-----------------------------------------------------------------------------
-----------------------------------------------------------------------------
-----------------------------------------------------------------------------
-0---0---12p0---0---0---0---0---0---0---0---12p0---0---0---0-----------------

------------------------------------------------------------------------------
------------------------------------------------------------------------------
------------------------------------------------------------------------------
------------------------------------------------------------------------------
------------------------------------------------------------------------------
-0---0---12p0---0---0---0---0---0---12p0---0---12p0---0---0-------------------

---------------------------------------------------------------------------
---------------------------------------------------------------------------
---------------------------------------------------------------------------
---------------------------------------------------------------------------
---------------------------------------------------------------------------
-0---8p0---0---8p0---0---0---8p0---0---8p0---0---8p0---0-------------------

-------------------------------------------------------------------------------
-------------------------------------------------------------------------------
-------------------------------------------------------------------------------
-------------------------------------------------------------------------------
-------------------------------------------------------------------------------
-0---10p0---0---10p0---0---10p0---0---10p0---0---10p0---0----------------------

------------------------------------------------------------------------------
------------------------------------------------------------------------------
------------------------------------------------------------------------------
------------------------------------------------------------------------------
------------------------------------------------------------------------------
-0---12p0---0---0---0---0---12p0---0---0---0---0---12p0---0-------------------

----------------------------------------------------------------------------
----------------------------------------------------------------------------
----------------------------------------------------------------------------
----------------------------------------------------------------------------
---------------------------------------5---5---2---2---5---5---2---2--------
-3---3---0---0---2---2---0---0----------------------------------------------

------------------------------------------------------------------------------
------------------------------------------------------------------------------
------------------------------------------------------------------------------
------------------------------------------------------------------------------
------------------------------------------------------------------------------
-12p0---0---0---0---0---0---12p0---0---0---0---0---0---12p0-------------------

-----------------------------------------------------------------------------------
-----------------------------------------------------------------------------------
-----------------------------------------------------------------------------------
-----------------------------------------------------------------------------------
-----------------------------------------------------------------------------------
-0---0---0---0---0---0---12p0---0---12p0---0---12p0---0---12p0---------------------

------------------------------------------------------------------------
------------------------------------------------------------------------
------------------------------------------------------------------------
------------------------------------------------------------------------
------------------------------------------------------------------------
-0---12p0---0---0---0---0---0---0---0---12p0---0---0---0----------------

------------------------------------------------------------------------------
------------------------------------------------------------------------------
------------------------------------------------------------------------------
------------------------------------------------------------------------------
------------------------------------------------------------------------------
-0---0---12p0---0---0---0---0---0---12p0---0---12p0---0---0-------------------

---------------------------------------------------------------------------
---------------------------------------------------------------------------
---------------------------------------------------------------------------
---------------------------------------------------------------------------
---------------------------------------------------------------------------
-0---8p0---0---8p0---0---0---8p0---0---8p0---0---8p0---0-------------------

-----------------------------------------------------------------------
-----------------------------------------------------------------------
-----------------------------------------------------------------------
-----------------------------------------------------------------------
-----------------------------------------------------------------------
-5p0---0---0---5p0---0---0---5p0---0---0---5p0---0---0-----------------

------------------------------------------------------------
------------------------------------------------------------
------------------------------------------------------------
------------------------------------------------------------
------------------------------------------------------------
-5h7--7--7--7--5h7--7--7--7--7--5h7--7--7--7----------------

------------------------------------------
------------------------------------------
------------------------------------------
------------------------------------------
-7----9------7----9-----------------------
-5----7------5----7-----------------------

-----------------------------------------------------------------------------
-----------------------------------------------------------------------------
-----------------------------------------------------------------------------
-9---9------------7---7------------10---10------------7---7------------------
----------7---7------------7---7----------------7---7------------7---7-------
----------------------------------------------------------------------------- X2

--------------------------------------------------------------------------
--------------------------------------------------------------------------
--------------------------------------------------------------------------
-7---7------------5---5------------9---9------------5---5-----------------
----------5---5------------5---5------------5---5------------5---5--------
--------------------------------------------------------------------------

--------------------------------------------------------------------------
--------------------------------------------------------------------------
--------------------------------------------------------------------------
-9---9------------7---7------------9---9------------7---7-----------------
----------6---6------------6---6------------6---6------------6---6--------
--------------------------------------------------------------------------

-------------------------------------------------------------------------
-------------------------------------------------------------------------
-------------------------------------------------------------------------
-5---5------------5---5------------5---5------------5---5----------------
----------3---3------------3---3------------3---3------------3---3-------
-------------------------------------------------------------------------

-------------------------------------------------------------------------
-------------------------------------------------------------------------
-------------------------------------------------------------------------
-4---4------------4---4------------4---4------------4---4----------------
----------2---2------------2---2------------2---2------------2---2-------
-------------------------------------------------------------------------

----------------------------------------------------------------------------
----------------------------------------------------------------------------
----------------------------------------------------------------------------
-2---2---2---2---2---2---2---2---4---4---4---4---4---4---4---4--------------
----------------------------------------------------------------------------
----------------------------------------------------------------------------

-------------------------------------------------------------
-------------------------------------------------------------
-------------------------------------------------------------
-5---5---5---5---5---5---5---5---7---7---7---7---7-----------
-------------------------------------------------------------
-------------------------------------------------------------

-----------------------------------------------------------------------------
-----------------------------------------------------------------------------
-----------------------------------------------------------------------------
-9---9------------7---7------------10---10------------7---7------------------
----------7---7------------7---7----------------7---7------------7---7-------
------------------------------------------------------------------------------ X2

--------------------------------------------------------------------------
--------------------------------------------------------------------------
--------------------------------------------------------------------------
-7---7------------5---5------------9---9------------5---5-----------------
----------5---5------------5---5------------5---5------------5---5--------
--------------------------------------------------------------------------

--------------------------------------------------------------------------
--------------------------------------------------------------------------
--------------------------------------------------------------------------
-9---9------------7---7------------9---9------------7---7-----------------
----------6---6------------6---6------------6---6------------6---6--------
--------------------------------------------------------------------------

-------------------------------------------------------------------------
-------------------------------------------------------------------------
-------------------------------------------------------------------------
-5---5------------5---5------------5---5------------5---5----------------
----------3---3------------3---3------------3---3------------3---3-------
-------------------------------------------------------------------------

-------------------------------------------------------------------------
-------------------------------------------------------------------------
-------------------------------------------------------------------------
-4---4------------4---4------------4---4------------4---4----------------
----------2---2------------2---2------------2---2------------2---2-------
-------------------------------------------------------------------------

--------------------------------------------------------------------------
--------------------------------------------------------------------------
--------------------------------------------------------------------------
-5---5---------------------------------------------5---5------------------
----------9---9---7---7---5---5---7---7---9---9------------9---9----------
--------------------------------------------------------------------------X2

---------------------------------------------------------------------------
---------------------------------------------------------------------------
---------------------------------------------------------------------------
-7---7-----------------------------------------5---5---7---7---------------
----------9---9---5---5---7---7---9---9----------------------9---9---------
--------------------------------------------------------------------------

---------------------------------------------------------------------------
---------------------------------------------------------------------------
---------------------------------------------------------------------------
-7---7-----------------------------------------5---5-----------------------
----------9---9---5---5---7---7---9---9------------9---9---9---9-----------
---------------------------------------------------------------------------

--------------------------------------------------------------------------
--------------------------------------------------------------------------
--------------------------------------------------------------------------
-5---5--------------------------------------------------5---5-------------
----------9---9---7---7---5---5---7---7---9---9------------9---9----------
--------------------------------------------------------------------------

---------------------------------------------------------------------------
---------------------------------------------------------------------------
---------------------------------------------------------------------------
-7---7-----------------------------------------5---5-----------------------
----------9---9---5---5---7---7---9---9------------9---9---9---9-----------
---------------------------------------------------------------------------

---------------------------------------------------------------------------
---------------------------------------------------------------------------
------------------------------------5---5----------------------------------
-7---7---5---5---9---9---5---5------------5---5---9---9---5---5------------
---------------------------------------------------------------------------
---------------------------------------------------------------------------

---------------------------------------------------------------------------
---------------------------------------------------------------------------
---------------------------------------------------------------------------
-7---7---5---5----------------------5---5----------------------------------
--------------------9---9---7---7------------9---9---7---7---5---5---------
---------------------------------------------------------------------------

-------------------------------------------------------------------------
-------------------------------------------------------------------------
-12--12--11--11-----------------------------------11--11--12--12--11--11-
-----------------------14--14--12--12--14--14----------------------------
-------------------------------------------------------------------------
-------------------------------------------------------------------------X2

----------------------------------------------------------------------
----------------------------------------------------------------------
-14--14--11--11------------------------11--11--12--12--14--14--11--11-
-----------------------12--12--14--14---------------------------------
----------------------------------------------------------------------
----------------------------------------------------------------------X2

-------------------------------------------------------------------------
-------------------------------------------------------------------------
-12--12--11--11-----------------------------------11--11--12--12--11--11-
-----------------------14--14--12--12--14--14----------------------------
-------------------------------------------------------------------------
-------------------------------------------------------------------------X2

-------------------------------------------------------------------
--------------------------13-13------------------------------------
-14-14-12-12-16-16-12-12---------12-12-16-16-12-12-------------14^-
-------------------------------------------------------------------
-------------------------------------------------------------------
-------------------------------------------------------------------


------------------------------------------
------------------------------------------
------------------------------------------
------------------------------------------
-7-----7----7----5----5----5----5---------
-5-----5----5----3----3----3----3---------

----------------------------------------------
----------------------------------------------
----------------------------------------------
--------------2--4--5--------5----5--6--------
-3-------3----2--2--3--------3----3--4--------
-1-------1----0--2--3--------3----3--4--------

------------------------------------------
------------------------------------------
------------------------------------------
-7------7----7--7--7----------------------
-5------5----5--5--7------7----7----------
-5------5----5--5--5------5----5----------

------------------------------------------
------------------------------------------
------------------------------------------
------------------------------------------
-3------3----3--3--5------5----5--5-------
-1------1----1--1--3------3----3--3-------

------------------------------------------
------------------------------------------
------------------------------------------
------------------------------------------
-7------7----7----5----5----5----5--------
-5------5----5----3----3----3----3--------

----------------------------------------------
----------------------------------------------
----------------------------------------------
--------------2--4--5--------5----5--6--------
-3-------3----2--2--3--------3----3--4--------
-1-------1----0--2--3--------3----3--4--------

------------------------------------------
------------------------------------------
------------------------------------------
-7------7----7--7--7----------------------
-5------5----5--5--7------7----7----------
-5------5----5--5--5------5----5----------

---------------------------------
---------------------------------
---------------------------------
---------------------------------
-3------3----3--3--2------2------
-1------1----1--1--0------0------

---------------------------------------
---------------------------------------
---------------------------------------
-2------2----2-------------------------
-0------0----0------5----5----5----5---
--------------------3----3----3----3---

----------------------------------------------
----------------------------------------------
----------------------------------------------
--------------2--4--5--------5----5--6--------
-3-------3----2--2--3--------3----3--4--------
-1-------1----0--2--3--------3----3--4--------

------------------------------------------
------------------------------------------
------------------------------------------
-7------7----7--7--7----------------------
-5------5----5--5--7------7----7----------
-5------5----5--5--5------5----5----------

------------------------------------------
------------------------------------------
------------------------------------------
------------------------------------------
-3------3----3--3--5------5----5--5-------
-1------1----1--1--3------3----3--3-------

------------------------------------------
------------------------------------------
------------------------------------------
------------------------------------------
-7------7----7----5----5----5----5--------
-5------5----5----3----3----3----3--------

----------------------------------------------
----------------------------------------------
----------------------------------------------
--------------2--4--5--------5----5--6--------
-3-------3----2--2--3--------3----3--4--------
-1-------1----0--2--3--------3----3--4--------

------------------------------------------
------------------------------------------
------------------------------------------
-7------7----7--7--7----------------------
-5------5----5--5--7------7----7----------
-5------5----5--5--5------5----5----------

Solo
---------------------------------------------------------------------------
-8---7-----------------7---8---7---8---7-----------------7---8---7---------
----------9---7---9---------------------------9---7---9--------------------
---------------------------------------------------------------------------
---------------------------------------------------------------------------
---------------------------------------------------------------------------

-------------------------------------------------------------------------
-10---7------------7---8---7-------10---7------------7---8---7-----------
------------7---9-----------------9-------------7---9--------------------
-------------------------------------------------------------------------
-------------------------------------------------------------------------
-------------------------------------------------------------------------

---------------------------------------------------------------------------
-8---7-----------------7---8---7---8---7-----------------7---8---7---------
----------9---7---9---------------------------9---7---9--------------------
---------------------------------------------------------------------------
---------------------------------------------------------------------------
---------------------------------------------------------------------------

---------------------------------------------------------------------
-8---7----------------7---8---7---8---7-----------------7------------
----------9---7---9--------------------------9---7---9-------9-------
---------------------------------------------------------------------
---------------------------------------------------------------------
---------------------------------------------------------------------

---------------------------------------------------------------------------
-8---7-----------------7---8---7---8---7-----------------7---8---7---------
----------9---7---9---------------------------9---7---9--------------------
---------------------------------------------------------------------------
---------------------------------------------------------------------------
---------------------------------------------------------------------------

-------------------------------------------------------------------------
-10---7------------7---8---7--------10---7-------------7---8---7---------
------------7---9-----------------9-------------7---9--------------------
-------------------------------------------------------------------------
-------------------------------------------------------------------------
-------------------------------------------------------------------------

---------------------------------------------------------------------------
-8---7-----------------7---8---7---8---7-----------------7---8---7---------
----------9---7---9---------------------------9---7---9--------------------
---------------------------------------------------------------------------
---------------------------------------------------------------------------
---------------------------------------------------------------------------

Clean Guitar part: X6

----------0------------0---------0-------------------
------0-----------0----------0-----------------------
-----------------------------------------------------
-2------------0-----------------------2--0-----------
---------------------------2------------------2--0---
-----------------------------------------------------

------------------3-----------------------------------------
--------------3------3--------------2---------3--2----------
----------4--------------0------2--------------------2------
-------5---------------------2------------2-------------0---
------------------------------------------------------------
-3----------------------------------------------------------

Solo
-15---12---------15---12---------------------------------
--------------15----------------15---12------------------
----------------------------------------------14---12----
---------------------------------------------------------
---------------------------------------------------------
---------------------------------------------------------

-----------------------------------------------------
---------------------------------12------------------
-------14---12---13---14------------------12---------
-14-----------------------------------14-------------
-----------------------------------------------------
-----------------------------------------------------
  development and support by
dmitry ivanov