rock
 
|tablatures   |lyrics   |discussion forums   |more tabs @ XGuitar.com

Helloween tabs

The Dark Ride bass tab

#----------------------------------PLEASE NOTE---------------------------------#
#This file is the author's own work and represents their interpretation of the #
#song. You may only use this file for private study, scholarship, or research. #
#------------------------------------------------------------------------------#


TITLE: The Dark Ride
ARTIST: Helloween
CD: The Dark Ride
TUNING: Db-Ab-Db-Gb
TABBED BY: Eugenio Bravo
E-MAIL: eugenio@robhalford.com


 INTRO ("All aboard!!!...")
|---------|---------|---------|-----|
|---------|---------|---------|-----|
|---------|---------|---------|-----|
|---------|---------|---------|-----|

|---------|---------|---------|-----|
|---------|---------|---------|-----|
|---------|---------|---------|-----|
|---------|---------|---------|-----|

|----------|----------|----------|------|
|----------|----------|----------|------|
|----------|----------|-0--------|------|
|-2--------|-0--------|----------|-2----|

|---------------------------------|---------------------------------|
|---------------------------------|---------------------------------|
|---------------------------------|---------------------------------|
|-2-2-2-2-2-2-2-2-2-2-2-2-2-2-2-2-|-0-0-0-0-0-0-0-0-0-0-0-0-0-0-0-0-|

|---------------------------------|---------------------------------|
|---------------------------------|---------------------------------|
|-0-0-0-0-0-0-0-0-0-0-0-0-0-0-0-0-|---------------------------------|
|---------------------------------|-2-2-2-2-2-2-2-2-2-2-5-5-4-4-3-3-|

 VERSE 1 ("Standing in line...")
|-----------------|-----------------|-----------------|-----------------|
|-----------------|-----------------|-----------------|-----------------|
|-----------------|-----------------|-----------------|-----------------|
|-2-2-2-2-2-2-2-2-|-2-2-2-2-2-2-2-2-|-0-0-0-0-0-0-0-0-|-0-0-0-0-0-0-0-0-|

 ("Heading to the wicked side...")
|-----------------|-----------------|-----------------|-----------------|
|-----------------|-----------------|-----------------|-----------------|
|-0-0-0-0-0-0-0-0-|-0-0-0-0-0-0-0-0-|-----------------|-----------------|
|-----------------|-----------------|-2-2-2-2-2-2-2-2-|-2-2-5-5-4-4-3-3-|

 ("One way ticket...")               ("There is no returning...")
|-----------------|-----------------|-----------------|-----------------|
|-----------------|-----------------|-----------------|-----------------|
|-----------------|-----------------|-----------------|-----------------|
|-2-2-2-2-2-2-2-2-|-2-2-2-2-2-2-2-2-|-0-0-0-0-0-0-0-0-|-0-0-0-0-0-0-0-0-|

             ("...the gates") BRIDGE 1 "Out of doubt-No hope..."
|-----------|---------------|-----4-4-----4-4-----4-4-----4-4--|
|-----------|---------------|-2-2-----2-2-----2-2-----2-2------|
|-0----0----|---------------|----------------------------------|
|-----------|-----5-4-(4)-3-|----------------------------------|

|-----4-4-----4-4-----4-4---------|-----4-4-----4-4-----4-4-----4-4-|
|-2-2-----2-2-----2-2-----2-2-----|-2-2-----2-2-----2-2-----2-2-----|
|-----------------------------2-2-|---------------------------------|
|---------------------------------|---------------------------------|

                                   ("Insanity confirms where we..."
|-----4-4-----4-4-----4-4---------|---------------------------------|
|-2-2-----2-2-----2-2-----2-2-----|-----2-2-----2-2-----2-2-----2-2-|
|-----------------------------2-2-|-3-3-----3-3-----3-3-----3-3-----|
|---------------------------------|---------------------------------|

|-----2-2-----2-2-----2-2-----2-2-|-----4-4-----4-4-----4-4-----4-4-|
|-0-0-----0-0-----0-0-----0-0-----|-2-2-----2-2-----2-2-----2-2-----|
|---------------------------------|---------------------------------|
|---------------------------------|---------------------------------|

                                   ("Spit the red vile breath...")
|---------------------------------|-----4-4-----4-4-----4-4-----4-4-|
|-----------------0-0-----0-0-----|-2-2-----2-2-----2-2-----2-2-----|
|---------------------2-2-----2-2-|---------------------------------|
|-5-5-2-2-4-4-2-2-----------------|---------------------------------|

                                   ("...wrath is our gift...")
|-----4-4-----4-4-----4-4---------|-----4-4-----4-4-----4-4-----4-4-|
|-2-2-----2-2-----2-2-----2-2-----|-2-2-----2-2-----2-2-----2-2-----|
|-----------------------------2-2-|---------------------------------|
|---------------------------------|---------------------------------|

                                   ("leads direct to...")
|-----4-4-----4-4-----4-4---------|---------------------------------|
|-2-2-----2-2-----2-2-----2-2-----|-----2-2-----2-2-----2-2-----2-2-|
|-----------------------------2-2-|-3-3-----3-3-----3-3-----3-3-----|
|---------------------------------|---------------------------------|

 ("...armageddooooooon")
|---------------------------------|---------------------------------|
|---------------------------------|---------------------------------|
|-0-0-----0-0-----0-0-----0-0-----|-0-2-2-2-2-2-0-2-2-2-2-2-0-2-2-2-|
|-----2-2-----2-2-----2-2-----2-2-|---------------------------------|

                CHORUS 1 ("Take a place...")
|--------------|---------------------------------|
|--------------|-2-2-2-2-2-2-2-2-2-2-2-2-2-2-2-2-|
|-2--2--(2)----|---------------------------------|
|--------------|---------------------------------|

|---------------------------------|---------------------------------|
|-2-2-2-2-2-2-2-2-2-2-2-2-2-2-2-2-|-0-0-0-0-0-0-0-0-0-0-0-0-0-0-0-0-|
|---------------------------------|---------------------------------|
|---------------------------------|---------------------------------|

                                   ("Slowly creeping...")
|---------------------------------|---------------------------------|
|---------------------------------|---------------------------------|
|-2-2-2-2-2-2-2-2-2-2-2-2-2-2-2-2-|-3-3-3-3-3-3-3-3-3-3-3-3-3-3-3-3-|
|---------------------------------|---------------------------------|

 ("...up, quickly...")              ("co-ming-down...")
|---------------------------------|---------------------------------|
|---------------------------------|---------------------------------|
|-2-2-2-2-2-2-2-2-2-2-2-2-2-2-2-2-|---------------------------------|
|---------------------------------|-2-2-2-2-2-2-2-2-4-4-4-4-4-4-4-4-|

                  ("Take a...")     ("...spin...")
|---------------------------------|---------------------------------|
|---------------------------------|---------------------------------|
|---------------------------------|-7-7-7-7-7-7-7-7-7-7-7-7-7-7-7-7-|
|-5-5-5-5-5-5-5-5-7-7-7-7-7-7-7-7-|---------------------------------|

|---------------------------------|---------------------------------|
|---------------------------------|---------------------------------|
|-7-7-7-7-7-7-7-7-7-7-7-7-7-7-7-7-|-5-5-5-5-5-5-5-5-5-5-5-5-5-5-5-5-|
|---------------------------------|---------------------------------|

 ("...ride...")                    ("...far...")
|---------------------------------|---------------------------------|
|---------------------------------|---------------------------------|
|-2-2-2-2-2-2-2-2-2-2-2-2-2-2-2-2-|-0-0-0-0-0-0-0-0-0-0-0-0-0-0-0-0-|
|---------------------------------|---------------------------------|

 ("...o-ther...")                  ("...siiiiide...")
|---------------------------------|---------------------------------|
|---------------------------------|---------------------------------|
|-2-2-2-2-2-2-2-2-2-2-2-2-2-2-2-2-|---------------------------------|
|---------------------------------|-2-2-2-2-2-2-2-2-2-2-2-2-2-2-2-2-|

                                   DRUM CUE
|---------------------------------|---------|-----|
|---------------------------------|---------|-----|
|---------------------------------|---------|-----|
|-0-0-0-0-0-0-0-0-0-0-0-0-0-0-0-0-|---------|-----|

 VERSE 2 ("Step inside and...")
|-----------------|-----------------|-----------------|-----------------|
|-----------------|-----------------|-----------------|-----------------|
|-----------------|-----------------|-----------------|-----------------|
|-2-2-2-2-2-2-2-2-|-2-2-2-2-2-2-2-2-|-0-0-0-0-0-0-0-0-|-0-0-0-0-0-0-0-0-|

 ("Your fantasies will come true...")
|-----------------|-----------------|-----------------|-----------------|
|-----------------|-----------------|-----------------|-----------------|
|-0-0-0-0-0-0-0-0-|-0-0-0-0-0-0-0-0-|-----------------|-----------------|
|-----------------|-----------------|-2-2-2-2-2-2-2-2-|-2-2-5-5-4-4-3-3-|

 ("Inclination...")
|-----------------|-----------------|-----------------|-----------------|
|-----------------|-----------------|-----------------|-----------------|
|-----------------|-----------------|-----------------|-----------------|
|-2-2-2-2-2-2-2-2-|-2-2-2-2-2-2-2-2-|-0-0-0-0-0-0-0-0-|-0-0-0-0-0-0-0-0-|

 ("Life's carousel is catching you")
|-----------------|-----------------|-----------------|-----------------|
|-----------------|-----------------|-----------------|-----------------|
|-0-0-0-0-0-0-0-0-|-0-0-0-0-0-0-0-0-|-----------------|-----------------|
|-----------------|-----------------|-2-2-2-2-2-2-2-2-|-2-2-2-2-2-2-2-2-|

 BRIDGE 2 ("Even through the darkest phase...")
|-----4-4-----4-4-----4-4-----4-4-|-----4-4-----4-4-----4-4---------|
|-2-2-----2-2-----2-2-----2-2-----|-2-2-----2-2-----2-2-----2-2-----|
|---------------------------------|-----------------------------2-2-|
|---------------------------------|---------------------------------|

 ("Be it thick or thin....")
|-----4-4-----4-4-----4-4-----4-4-|-----4-4-----4-4-----4-4---------|
|-2-2-----2-2-----2-2-----2-2-----|-2-2-----2-2-----2-2-----2-2-----|
|---------------------------------|-----------------------------2-2-|
|---------------------------------|---------------------------------|

 ("I'm your pain when...")         ("...you can't...)
|---------------------------------|-----2-2-----2-2-----2-2-----2-2-|
|-----2-2-----2-2-----2-2-----2-2-|-0-0-----0-0-----0-0-----0-0-----|
|-3-3-----3-3-----3-3-----3-3-----|---------------------------------|
|---------------------------------|---------------------------------|

 ("...feel...")
|-----4-4-----4-4-----4-4-----4-4-|---------------------------------|
|-2-2-----2-2-----2-2-----2-2-----|-----------------0-0-----0-0-----|
|---------------------------------|---------------------2-2-----2-2-|
|---------------------------------|-5-5-2-2-4-4-2-2-----------------|

 ("Driven to our final fate...")
|-----4-4-----4-4-----4-4-----4-4-|-----4-4-----4-4-----4-4---------|
|-2-2-----2-2-----2-2-----2-2-----|-2-2-----2-2-----2-2-----2-2-----|
|---------------------------------|-----------------------------2-2-|
|---------------------------------|---------------------------------|

 ("Jump out of this game...")
|-----4-4-----4-4-----4-4-----4-4-|-----4-4-----4-4-----4-4---------|
|-2-2-----2-2-----2-2-----2-2-----|-2-2-----2-2-----2-2-----2-2-----|
|---------------------------------|-----------------------------2-2-|
|---------------------------------|---------------------------------|

 ("Can we ever...")                ("...stop this ride to...")
|---------------------------------|---------------------------------|
|-----2-2-----2-2-----2-2-----2-2-|---------------------------------|
|-3-3-----3-3-----3-3-----3-3-----|-0-0-----0-0-----0-0-----0-0-----|
|---------------------------------|-----2-2-----2-2-----2-2-----2-2-|

 ("...heeeeell!")
|---------------------------------|--------------|
|---------------------------------|--------------|
|-0-2-2-2-2-2-0-2-2-2-2-2-0-2-2-2-|-2--2--(2)----|
|---------------------------------|--------------|

 CHORUS 2 ("Take a place....")
|---------------------------------|---------------------------------|
|-2-2-2-2-2-2-2-2-2-2-2-2-2-2-2-2-|-2-2-2-2-2-2-2-2-2-2-2-2-2-2-2-2-|
|---------------------------------|---------------------------------|
|---------------------------------|---------------------------------|

|---------------------------------|---------------------------------|
|-0-0-0-0-0-0-0-0-0-0-0-0-0-0-0-0-|---------------------------------|
|---------------------------------|-2-2-2-2-2-2-2-2-2-2-2-2-2-2-2-2-|
|---------------------------------|---------------------------------|

 ("Slowly creeping up...")
|---------------------------------|---------------------------------|
|---------------------------------|---------------------------------|
|-3-3-3-3-3-3-3-3-3-3-3-3-3-3-3-3-|-2-2-2-2-2-2-2-2-2-2-2-2-2-2-2-2-|
|---------------------------------|---------------------------------|

 ("...co-ming-down...")                             ("Take a...")
|---------------------------------|---------------------------------|
|---------------------------------|---------------------------------|
|---------------------------------|---------------------------------|
|-2-2-2-2-2-2-2-2-4-4-4-4-4-4-4-4-|-5-5-5-5-5-5-5-5-7-7-7-7-7-7-7-7-|

 ("...spin...")
|---------------------------------|---------------------------------|
|---------------------------------|---------------------------------|
|-7-7-7-7-7-7-7-7-7-7-7-7-7-7-7-7-|-7-7-7-7-7-7-7-7-7-7-7-7-7-7-7-7-|
|---------------------------------|---------------------------------|

                                   ("...ride...")
|---------------------------------|---------------------------------|
|---------------------------------|---------------------------------|
|-5-5-5-5-5-5-5-5-5-5-5-5-5-5-5-5-|-2-2-2-2-2-2-2-2-2-2-2-2-2-2-2-2-|
|---------------------------------|---------------------------------|

 ("...far...")                     ("...o-ther...")
|---------------------------------|---------------------------------|
|---------------------------------|---------------------------------|
|-0-0-0-0-0-0-0-0-0-0-0-0-0-0-0-0-|-2-2-2-2-2-2-2-2-2-2-2-2-2-2-2-2-|
|---------------------------------|---------------------------------|

 SOLO 1 ("...siiiiide...")
|---------------------------------|---------------------------------|
|---------------------------------|---------------------------------|
|---------------------------------|---------------------------------|
|-2-2-2-2-2-2-2-2-2-2-2-2-2-2-2-2-|-2-2-2-2-2-2-2-2-2-2-2-2-2-2-2-2-|

|---------------------------------|---------------------------------|
|---------------------------------|---------------------------------|
|-0-0-0-0-0-0-0-0-0-0-0-0-0-0-0-0-|-0-0-0-0-0-0-0-0-0-0-0-0-0-0-0-0-|
|---------------------------------|---------------------------------|

|---------------------------------|---------------------------------|
|---------------------------------|---------------------------------|
|-3-3-3-3-3-3-3-3-3-3-3-3-3-3-3-3-|-2-2-2-2-2-2-2-2-2-2-2-2-2-2-2-2-|
|---------------------------------|---------------------------------|

|---------------------------------|-------------------------|
|---------------------------------|-------------------------|
|---------------------------------|-------------------------|
|-2-2-2-2-2-2-2-2-4-4-4-4-4-4-4-4-|-5-5-5-5-5-5-5-5-7-7-7-7-|

 MELODY BECOMES FASTER!
|---------------------------------|---------------------------------|
|---------------------------------|---------------------------------|
|---------------------------------|---------------------------------|
|-2-2-2-2-2-2-2-2-2-2-2-2-2-2-2-2-|-2-2-2-2-2-2-2-2-2-2-2-2-2-2-2-2-|

|---------------------------------|---------------------------------|
|---------------------------------|---------------------------------|
|-0-0-0-0-0-0-0-0-0-0-0-0-0-0-0-0-|-0-0-0-0-0-0-0-0-0-0-0-0-0-0-0-0-|
|---------------------------------|---------------------------------|

|---------------------------------|---------------------------------|
|---------------------------------|---------------------------------|
|-3-3-3-3-3-3-3-3-3-3-3-3-3-3-3-3-|-2-2-2-2-2-2-2-2-2-2-2-2-2-2-2-2-|
|---------------------------------|---------------------------------|

|---------------------------------|----------|--------|
|---------------------------------|-0--------|-(0)----|
|---------------------------------|----------|--------|
|-2-2-2-2-2-2-2-2-2-2-2-2-2-2-2-2-|----------|--------|

  INTERLUDE 1 ("Is there any wonder?...")
|--------------------|--------------------|---------------------|
|--------------------|--------------------|---------------------|
|-0--0-0-------------|------0-0-3-3-3-3-4-|-5-5-5-5-------------|
|--------5-5-5-5-5-2-|-3--3---------------|---------7-7-7-7-7-2-|

                   ("Isn't it a wonder?...")
|----------------|--------------------|--------------------|
|------3---------|--------------------|--------------------|
|----3-------2-2-|-0--0-0-------------|------0-2-3-3-3-3-4-|
|-3------5-5-----|--------5-5-5-5-5-2-|-3--3---------------|

 ("Remove all the stones...")                ("...belieeeve...")
|---------------------|--------------|-------------------------|
|---------------------|-----3--------|-------------------------|
|-5-5-5-5-------------|---3----------|-0-2-0-------------------|
|---------7-7-7-7-7-2-|-3------2--2--|-------5-7-7-5-5-5-5-2---|

                                ("ooooh...")   ("will we find the way...")
|--------------------|---------------------|---------------|
|--------------------|---------------------|------3--------|
|------0-2-3-3-3-3-4-|-5-5-5-5-------------|----0-------2--|
|-3--3---------------|---------5-7-7-7-7-2-|-3------5-5----|

  ("...-to the other side...")
|--------------------|--------------------|---------------------|
|--------------------|--------------------|---------------------|
|-0--0-0-------------|------0-2-3-3-3-3-4-|-5-5-5-5-------------|
|--------5-5-5-5-5-2-|-3--3---------------|---------7-7-7-7-7-2-|

 ("...we can't see?...") ("...Riiiide...")
|-----------------|----------|----------|------|
|-----3-3-3-------|----------|----------|------|
|---0-------------|----------|----------|-0----|
|-3---------2--2--|------2---|-0--------|------|

            ("I'm your pain...")
|----------|---------------------------------|
|----------|---------------------------------|
|----------|---------------------------------|
|-2--------|-2-2-2-2-2-2-2-2-2-2-2-2-2-2-2-2-|

 ("When you can't feel...")        ("I know too well you'll follow...")
|---------------------------------|---------------------------------|
|---------------------------------|---------------------------------|
|---------------------------------|-0-0-0-0-0-0-0-0-0-0-0-0-0-0-0-0-|
|-0-0-0-0-0-0-0-0-0-0-0-0-0-0-0-0-|---------------------------------|

 (...me")   ACOUSTIC PART
|----------|---------|---------|-----|
|----------|---------|---------|-----|
|----------|---------|---------|-----|
|-2--------|---------|---------|-----|

|----------|------------|------------|------------------|
|----------|------------|------------|---5-(5)-7-(7)----|
|----------|------------|------------|------------------|
|-2--------|-(2)--------|-(2)--------|-5----------------|

|---------|---------|---------|-----|
|---------|---------|---------|-----|
|---------|---------|---------|-----|
|---------|---------|---------|-----|

  SOLO 2
|-------------------------|-----------------|-----------------|---------------|
|-------------------------|-----------------|-----------------|---------------|
|-------------------------|-----------------|-----------------|---------------|
|-10-10-10-10-10-10-10-10-|-9-9-9-9-9-9-9-9-|-2-2-2-4-4-4-5-5-|-5-7-7-7-9--9--|

|-------------------------|-----------------|-----------------|----------------|
|-------------------------|-----------------|-----------------|----------------|
|-------------------------|-----------------|-----------------|----------------|
|-10-10-10-10-10-10-10-10-|-9-9-9-9-9-9-9-9-|-2-2-2-2-2-2-2-2-|-2-2-2-2-2-2-5--|

|-----------------|-----------------|-----------------|---------------|
|-----------------|-----------------|-----------------|---------------|
|-3-3-3-3-3-3-3-3-|-2-2-2-2-2-2-2-2-|-----------------|---------------|
|-----------------|-----------------|-2-2-2-4-4-4-5-5-|-5-7-7-7-9--9--|

|-------------------------|-------------------|
|-------------------------|-------------------|
|-------------------------|-------------------|
|-10-10-10-10-10-10-10-10-|-9-9-9-9-9-9-(9)-9-|

 SOLO 3
|-----------------|-----------------|
|-----------------|-----------------|
|-----------------|-----------------|
|-7-7-7--7-7-7----|-7-7-7--7-7-7----|

|-----------------|----------------------|-----------------|
|-----------------|----------------------|-----------------|
|-----------------|-5-5-5----------------|-----------------|
|-7-7-7--7-7-7----|--------5-5-5-5-5-5-6-|-7-7-7--7-7-7----|

|-----------------|-----------------|-----------------|
|-----------------|-----------------|-----------------|
|-----------------|-----------------|-----------------|
|-7-7-7--7-7-7----|-7-7-7--7-7-7----|-7-7-7-7-7-7-7-7-|

|-----------------|-----------------|-----------------|
|-----------------|-----------------|-----------------|
|-----------------|-----------------|-----------------|
|-7-7-7--7-7-7----|-7-7-7--7-7-7----|-7-7-7--7-7-7----|

|----------------------|-----------------|-----------------|
|----------------------|-----------------|-----------------|
|-5-5-5----------------|-----------------|-----------------|
|--------5-5-5-5-5-5-6-|-7-7-7--7-7-7----|-7-7-7--7-7-7----|

|---------------------------------|---------------------------------|
|---------------------------------|---------------------------------|
|---------------------------------|---------------------------------|
|-7-7-7-7-7-7-7-7-7-7-7-7-7-7-7-7-|-7-7-7-7-7-7-7-7-7-7-7-7-7-7-7-7-|

 KEYBOARD SOLO
|---------------------------------|
|---------------------------------|
|---------------------------------|
|-9-9-9-9-9-9-9-9-9-9-9-9-9-9-9-9-|

|-------------------------------------------------|
|-------------------------------------------------|
|-------------------------------------------------|
|-11-11-11-11-11-11-11-11-11-11-11-11-11-11-11-11-|

|-------------------------------------------------|
|-------------------------------------------------|
|-------------------------------------------------|
|-12-12-12-12-12-12-12-12-12-12-12-12-12-12-12-12-|

|-------------------------------------------------|
|-------------------------------------------------|
|-------------------------------------------------|
|-14-14-14-14-14-14-14-14-14-14-14-14-14-14-14-14-|

|---------------------------------|---------------------------------|
|---------------------------------|---------------------------------|
|-2-2-2-2-2-2-2-2-2-2-2-2-2-2-2-2-|-0-0-0-0-0-0-0-0-0-0-0-0-0-0-0-0-|
|---------------------------------|---------------------------------|

|---------------------------------|---------------------------------|
|-0-0-0-0-0-0-0-0-----------------|---------------------------------|
|-----------------2-2-2-2-2-2-2-2-|-----------------2-2-2-2-2-2-2-2-|
|---------------------------------|-4-4-4-4-4-4-4-4-----------------|

|---------------------------------|---------------------------------|
|---------------------------------|---------------------------------|
|-2-2-2-2-2-2-2-2-2-2-2-2-2-2-2-2-|-4-4-4-4-4-4-4-4-4-4-4-4-4-4-4-4-|
|---------------------------------|---------------------------------|

|---------------------------------|---------------------------------|
|---------------------------------|---------------------------------|
|-5-5-5-5-5-5-5-5-5-5-5-5-5-5-5-5-|-7-7-7-7-7-7-7-7-7-7-7-7-7-7-7-7-|
|---------------------------------|---------------------------------|

                                                            KEYB ENDS
|---------------------------------|---------------------------------|
|---------------------------------|-------------------------1-1-1-1-|
|---------------------------------|---------0-0-0-0-3-3-3-3---------|
|-5-5-5-5-5-5-5-5-5-5-5-5-5-5-5-5-|-4-4-4-4-------------------------|

 SOLO 4
|---------------------------------|---------------------------------|
|---------------------------------|---------------------------------|
|---------------------------------|---------------------------------|
|-2-2-2-2-2-2-2-2-2-2-2-2-2-2-2-2-|-2-2-2-2-2-2-2-2-2-2-2-2-2-2-2-2-|

|---------------------------------|---------------------------------|
|---------------------------------|---------------------------------|
|-0-0-0-0-0-0-0-0-0-0-0-0-0-0-0-0-|-0-0-0-0-0-0-0-0-0-0-0-0-0-0-0-0-|
|---------------------------------|---------------------------------|

|---------------------------------|---------------------------------|
|---------------------------------|---------------------------------|
|-3-3-3-3-3-3-3-3-3-3-3-3-3-3-3-3-|-2-2-2-2-2-2-2-2-2-2-2-2-2-2-2-2-|
|---------------------------------|---------------------------------|

|---------------------------------|-------------------------|
|---------------------------------|-------------------------|
|---------------------------------|-------------------------|
|-2-2-2-2-2-2-2-2-4-4-4-4-4-4-4-4-|-5-5-5-5-5-5-5-5-7-7-7-7-|

|---------------------------------|---------------------------------|
|---------------------------------|---------------------------------|
|---------------------------------|---------------------------------|
|-2-2-2-2-2-2-2-2-2-2-2-2-2-2-2-2-|-2-2-2-2-2-2-2-2-2-2-2-2-2-2-2-2-|

|---------------------------------|---------------------------------|
|---------------------------------|---------------------------------|
|-0-0-0-0-0-0-0-0-0-0-0-0-0-0-0-0-|-0-0-0-0-0-0-0-0-0-0-0-0-0-0-0-0-|
|---------------------------------|---------------------------------|

|---------------------------------|---------------------------------|
|---------------------------------|---------------------------------|
|-3-3-3-3-3-3-3-3-3-3-3-3-3-3-3-3-|-2-2-2-2-2-2-2-2-2-2-2-2-2-2-2-2-|
|---------------------------------|---------------------------------|

|---------------------------------|----------|--------|
|---------------------------------|-0--------|-(0)----|
|---------------------------------|----------|--------|
|-2-2-2-2-2-2-2-2-2-2-2-2-2-2-2-2-|----------|--------|

  INTERLUDE 3 ("Is there any wonder?...)
|--------------------|--------------------|---------------------|
|--------------------|--------------------|---------------------|
|-0--0-0-------------|------0-0-3-3-3-3-4-|-5-5-5-5-------------|
|--------5-5-5-5-5-2-|-3--3---------------|---------7-7-7-7-7-2-|

                  ("Isn't it a wonder?...")
|----------------|--------------------|--------------------|
|------3---------|--------------------|--------------------|
|----3-------2-2-|-0--0-0-------------|------0-2-3-3-3-3-4-|
|-3------5-5-----|--------5-5-5-5-5-2-|-3--3---------------|

 ("Remove all the stones...")                 ("...belieeeeve...")
|---------------------|---------------|------------------------|
|---------------------|-----3---------|------------------------|
|-5-5-5-5-------------|---3-----------|-0-2-0------------------|
|---------7-7-7-7-7-2-|-3------2--2-2-|-------5-7-7-5-5-5-5-2--|

 PLAY ALL THIS 'TILL FADE-OUT
|--------------------|---------------------|---------------|
|--------------------|---------------------|------3--------|
|------0-2-3-3-3-3-4-|-5-5-5-5-------------|----3-------2--|
|-3--3---------------|---------7-7-7-7-7-2-|-3------5-5----|

|--------------------|--------------------|---------------------|
|--------------------|--------------------|---------------------|
|-0--0-0-------------|------0-2-3-3-3-3-4-|-5-5-5-5-------------|
|--------5-5-5-5-5-2-|-3--3---------------|---------7-7-7-7-7-2-|

|-----------------|-----------------------|--------------------|
|-----3-3-3-------|-----------------------|--------------------|
|---0-------------|-0-2-0-----------------|------0-2-3-3-3-3-4-|
|-3---------2--2--|-------5-7-7-5-5-5-5-2-|-3--3---------------|

|---------------------|---------------|--------------------|
|---------------------|------3--------|--------------------|
|-5-5-5-5-------------|----3-------2--|-0--0-0-------------|
|---------7-7-7-7-7-2-|-3------5-5----|--------5-5-5-5-5-2-|

|--------------------|---------------------|------------------|
|--------------------|---------------------|-----3-3-3--------|
|------0-2-3-3-3-3-4-|-5-5-5-5-------------|---0--------------|
|-3--3---------------|---------7-7-7-7-7-2-|-3---------2--2---|

|-----------------------|--------------------|---------------------|
|-----------------------|--------------------|---------------------|
|-0-2-0-----------------|------0-2-3-3-3-3-4-|-5-5-5-5-------------|
|-------5-7-7-5-5-5-5-2-|-3--3---------------|---------7-7-7-7-7-2-|

|---------------|--------------------|--------------------|
|------3--------|--------------------|--------------------|
|----3-------2--|-0--0-0-------------|------0-2-3-3-3-3-4-|
|-3------5-5----|--------5-5-5-5-5-2-|-3--3---------------|

|---------------------|-----------------*|
|---------------------|-----3-3-3-------*|
|-5-5-5-5-------------|---0-------------*|
|---------7-7-7-7-7-2-|-3---------2--2--*|

 End.

***************************************************************************************
* Generated using Power Tab Editor by Brad Larsen - http://powertab.guitarnetwork.org *
***************************************************************************************
  development and support by
dmitry ivanov