rock
 
|tablatures   |lyrics   |discussion forums   |more tabs @ XGuitar.com

Helloween tabs

The Chance bass tab

Author/Artist: Helloween
Title: The Chance
Album: Pink Bubbles Go Ape
Transcribed by: André Baida from BRAZIL
Email: andrecp@bestway.com.br

Tune: E A D G

Intro.

G---------------------------------|--------------------------------------------
D---------------------------------|--7-9-9-9-9-9-9-9-7-9-9-9-9-9-9-----7-9-9---
A--2-2--0--5-5--7--2-2--3--0-0--2-|--------------------------------7h9---------
E---------------------------------|--------------------------------------------
                                                                              

G-----------------------------|---
D-9-9-9-9-9-7-9-9-9-9-9-9-9-9-|---
A-----------------------------|---
E-----------------------------|---
                                                                              
Vocals

G----------------------2-4-4-4-4-4-4-4-4-4-----2-----------------------2-4-4---
D------------------2-4---------------------2-4---------------------2-4---------
A--2-2-2-2-2-2-2-2-------------------------------2-2-2-2-2-2-2-2-2-------------
E------------------------------------------------------------------------------
                                                                              

G-4-4-4-4-4-4-4-4-|------------------------------------------|-----------------
D-----------------|------------------------------------------|-----------------
A-----------------|------------------------------------------|-2-2-2-2-2-2-2---
E-----------------|--0-3-0-5-0-3-0-2-0-3-0-3-0-5-0-3-0-2-0-3-|-----------------
                                                                              

G---------2-4-4-4-4-4-4-4-4-4-4-4-4-----2-|------------------------------------
D-----2-4---------------------------2-4---|------------------------------------
A-2-2-------------------------------------|------------------------------------
E-----------------------------------------|--0-3-0-5-0-3-0-2-0-3-0-3-0-5-0-3---
                                                                              

G---------|----------------------2-4-4-4-4-4-4-4-4-4-4-|---
D---------|------------------2-4-----------------------|---
A---------|--2-2-2-2-2-2-2-2---------------------------|---
E-0-2-0-3-|--------------------------------------------|---
                                                                              
Bridge.

G-------------------------------------------------------4----------------------
D--------5-4-5-7-5-4---4-5------------------------5-4-5---7-5-4-5-7------------
A------5-------------7------2-2-2-2-2-2-2-2-----5------------------------------
E---3-----------------------------------------3----------------------0-0-0-0---
                                                                              

G------------------------11-12-14-|---
D---------------11-12-14----------|---
A---------------------------------|---
E-0-0-0-0-0-0-0-------------------|---
                                                                              
Chorus.

G------------------------------------------------------------------------------
D---7-9-9-9-9-9-9-9-9-9-7-9-9-9-9-9-9-9-9-----7-9-9-9-9-9-9-9-9-9-7-9-9-9-9-9--
A-----------------------------------------7h9----------------------------------
E------------------------------------------------------------------------------
                                                                              

G---------------7h9p7----------------------------------------------------------
D-9-9-9-9-9-7h9--------7-9-9-9-9-9-9-9-9-9-7-9-9-9-9-9-9-9-9-9-----7-9-9-9-9---
A--------------------------------------------------------------7h9-------------
E------------------------------------------------------------------------------
                                                                              

G-----------------------------------|---
D-9-9-9-9-9-9-7-9-9-9-9-9-9-9-9-9-9-|---
A-----------------------------------|---
E-----------------------------------|---                                                                              

Riff 1.

G----------------------------------------------------------|---
D----------------------------------------------------------|---
A----------------------------------------------------------|---
E---0-3-0-5-0-3-0-2-0-3-0-3-0-5-0-3-0-2-0-3----1-1-1-1-1-1-|---
       
Vocals II.
                                                                       
G----------------------2-4-4-4-4-4-4-4-4-4-----2-----------------------2-4-4---
D------------------2-4---------------------2-4---------------------2-4---------
A--2-2-2-2-2-2-2-2-------------------------------2-2-2-2-2-2-2-2-2-------------
E------------------------------------------------------------------------------
                                                                              

G-4-4-4-4-4-4-4-4-|------------------------------------------|-----------------
D-----------------|------------------------------------------|-----------------
A-----------------|------------------------------------------|-2-2-2-2-2-2-2---
E-----------------|--0-3-0-5-0-3-0-2-0-3-0-3-0-5-0-3-0-2-0-3-|-----------------
                                                                              

G---------2-4-4-4-4-4-4-4-4-4-4-4-4-----2-|------------------------------------
D-----2-4---------------------------2-4---|------------------------------------
A-2-2-------------------------------------|------------------------------------
E-----------------------------------------|--0-3-0-5-0-3-0-2-0-3-0-3-0-5-0-3---
                                                                              

G---------|----------------------2/7-6-5-----------|---
D---------|------------------2-4---------7-5-4-5---|---
A---------|--2-2-2-2-2-2-2-2-----------------------|---
E-0-2-0-3-|----------------------------------------|---

Repeat bridge,chorus and then:

Solo.

G-------------------------|------------------------------------9-9-9-9-9-|---
D-------------------------|----------------------------------------------|---
A---2--0---5--7---2-------|----------------------------------------------|---
E--------------------3-3--|-0--0-0--0-0-0---0---0-0---0---0-0------------|---
                                                                              

G------------------------------------------------------------------------------
D--4-5-5-5-5-5-5-5-4-5-5-5-5-5-5-5-4-5-5-5-5-5-5-5-4-5-5-5-5-5-5-5-5-----------
A--------------------------------------------------------------------2-2-2-0---
E------------------------------------------------------------------------------
                                                                              

G------------------------------------------------------------------------------
D----------------------------------------------------------------4-5-5-5-5-5---
A-0-0-0-0-5-5-5-7-7-7-7-7-2-2-2-----------0-0-0-0-0-2-2-2-2-2-2----------------
E-------------------------------3-3-3-3-3--------------------------------------
                                                                              

G------------------------------------------------------------------------------
D-5-5-4-5-5-5-5-5-5-5-4-5-5-5-5-5-5-5-4-5-5-5-5-5-5-5-5-5-5--------------------
A-----------------------------------------------------------2-2-2--0-0-0-0-5---
E------------------------------------------------------------------------------
                                                                              

G----------------------------------------------------------------------|---
D----------------------------------------------------------------------|---
A-5-5-7-7-7-7-2-2-2-----------0-0-0-2-2-2-2-2--8-8-8-8-8-8-8-8-8-8-8-8-|---
E-------------------3-3-3-3-3------------------------------------------|---
                                                                              
Pre-Chorus. 

G--------------------------------------------4-------------7-4-4-4-4-|---
D--9\2-----------------------------------------4-5-5-5-5-7-----------|---
A-------2-2-2-2-2-2-2-2-2-2-2-2-2-2-2-2-2-2--------------------------|---
E--------------------------------------------------------------------|---
                                                                              
Chorus II(many times) // End of song.

G----------9----||----------------------------------------------------------------|---
D--9-10-11---11-||----------------------------------------------------------------|---
A---------------||-------4-------7---9---4---------4----------------5-5-5-5-5-5-5-|---
E---------------||-----------7---------------5-5-7------1-1-1-1-1-1---------------|---
                                                                              

End.
  development and support by
dmitry ivanov