rock
 
|tablatures   |lyrics   |discussion forums   |more tabs @ XGuitar.com

Helloween tabs

Still We Go bass tab

G||------------------|------------------|------------------|------------------|
D||------------------|------------------|------------------|------------------|
A||------------------|------------------|------------------|------------------|
E||------------------|------------------|------------------|------------------|



------------------|------------------|------------------|
------------------|------------------|------------------|
------------------|------------------|------------------|
------------------|------------------|------------------|



----------------------------------|----------------------------------|
----------------------------------|----------------------------------|
--7-7-7-7-7-7-7-7-7-7-7-7-7-7-7-7-|--0-0-0-0-0-0-0-0-0-0-0-0-0-0-0-0-|
----------------------------------|----------------------------------|



----------------------------------|--5-5-4-4-2-2---------------------|
----------------------------------|--------------5-5-4-4-5-5-4-4-----|
--3-3-3-3-3-3-3-3-3-3-3-3-3-3-3-3-|------------------------------5-5-|
----------------------------------|----------------------------------|



----------------------------------|----------------------------------|
----------------------------------|----------------------------------|
--7-7-7-7-7-7-7-7-7-7-7-7-7-7-7-7-|--0-0-0-0-0-0-0-0-0-0-0-0-0-0-0-0-|
----------------------------------|----------------------------------|



----------------------------------|--5-5-4-4-2-2---------------------|
----------------------------------|--------------5-5-4-4-5-5-4-4-----|
--3-3-3-3-3-3-3-3-3-3-3-3-3-3-3-3-|------------------------------5-5-|
----------------------------------|----------------------------------|



----------------------------------|----------------------------------|
----------------------------------|----------------------------------|
--0-0-0-0-0-0-0-0-0-0-0-0-0-0-0-0-|--5-5-5-5-5-5-5-5-5-5-5-5-5-5-5-5-|
----------------------------------|----------------------------------|



----------------------------------|--------9-9-7-7---------------------------|
----------------------------------|----------------10-10-9-9-10-10-9-9-------|
--8-8-8-8-8-8-8-8-8-8-8-8-8-8-8-8-|--10-10-----------------------------10-10-|
----------------------------------|------------------------------------------|



----------------------------------|----------------------------------|
----------------------------------|----------------------------------|
--0-0-0-0-0-0-0-0-0-0-0-0-0-0-0-0-|--5-5-5-5-5-5-5-5-5-5-5-5-5-5-5-5-|
----------------------------------|----------------------------------|



----------------------------------|--------9-9-7-7---------------------------|
----------------------------------|----------------10-10-9-9-10-10-9-9-------|
--8-8-8-8-8-8-8-8-8-8-8-8-8-8-8-8-|--10-10-----------------------------10-10-|
----------------------------------|------------------------------------------|



-------------------|------------------|-------------------|------------------|
-------------------|------------------|-------------------|------------------|
--0----------------|------------------|--0----------------|------------------|
-------------------|------------------|-------------------|------------------|



-------------------|------------------|-------------------|------------------|
-------------------|------------------|-------------------|------------------|
--0----------------|------------------|--0----------------|------------------|
-------------------|------------------|-------------------|------------------|



---------------------------|----------------------------|
---------------------------|----------------------------|
---------------------------|--------------3-3-----------|
--5--5--3-3-5----5--3-3-5--|----5--3-3-5------5--3-3-5--|



--------------------------|--------------------------|
--------------------------|--------------------------|
--------------------------|--------------3-3---------|
----5--3-3-5----5--3-3-5--|----5--3-3-5------5--3----|



---------------------------|----------------------------|
---------------------------|----------------------------|
---------------------------|--------------3-3-----------|
--5--5--3-3-5----5--3-3-5--|----5--3-3-5------5--3-3-5--|



--------------------------|--------------------------|
--------------------------|--------------------------|
--------------------------|--------------3-3---------|
----5--3-3-5----5--3-3-5--|----5--3-3-5------5--3----|



---------------------------|----------------------------|
---------------------------|----------------------------|
---------------------------|--------------3-3-----------|
--5--5--3-3-5----5--3-3-5--|----5--3-3-5------5--3-3-5--|



--------------------------|--------------------------|
--------------------------|--------------------------|
--------------------------|--------------3-3---------|
----5--3-3-5----5--3-3-5--|----5--3-3-5------5--3----|



---------------------------|----------------------------|
---------------------------|----------------------------|
---------------------------|--------------3-3-----------|
--5--5--3-3-5----5--3-3-5--|----5--3-3-5------5--3-3-5--|



--------------------------|--------------------------|
--------------------------|--------------------------|
--------------------------|--------------3-3---------|
----5--3-3-5----5--3-3-5--|----5--3-3-5------5--3----|



--------------------------------|----------------------------------|
--------------------------------|----------------------------------|
----1-1-1-1-1-1-1-1-1-1-1-1-1-1-|--3-3-3-3-3-3-3-3-3-3-3-3-3-3-3-3-|
--------------------------------|----------------------------------|



----------------------------------|----------------------------------|
----------------------------------|----------------------------------|
----------------------------------|----------------------------------|
--1-1-1-1-1-1-1-1-1-1-1-1-1-1-1-1-|--3-3-3-3-3-3-3-3-3-3-3-3-3-3-3-3-|



--------------------------------|----------------------------------|
--------------------------------|----------------------------------|
----1-1-1-1-1-1-1-1-1-1-1-1-1-1-|--3-3-3-3-3-3-3-3-3-3-3-3-3-3-3-3-|
--------------------------------|----------------------------------|



--------------------------|--------------------------|
--------------------------|--------------------------|
--------------------------|--------------------------|
--0--0--0--0--0--0--0--0--|--1--1--1--1--1--1--3--3--|



----------------------------------|----------------------------------|
----------------------------------|----------------------------------|
----------------------------------|----------------------------------|
--5-5-5-5-5-5-3-3-5-5-5-5-5-5-3-3-|--5-5-5-5-5-5-3-3-5-5-5-5-5-5-3-3-|



----------------------------------|----------------------------------|
----------------------------------|----------------------------------|
----------------------------------|----------------------------------|
--3-3-3-3-3-3-3-3-3-3-3-3-3-3-3-3-|--3-3-3-3-3-3-3-3-0-0-0-0-0-0-3-3-|



----------------------------------|----------------------------------|
----------------------------------|----------------------------------|
----------------------------------|----------------------------------|
--5-5-5-5-5-5-3-3-5-5-5-5-5-5-3-3-|--5-5-5-5-5-5-3-3-5-5-5-5-5-5-3-3-|



----------------------------------|----------------------------------|
----------------------------------|----------------------------------|
----------------------------------|----------------------------------|
--3-3-3-3-3-3-3-3-3-3-3-3-3-3-3-3-|--3-3-3-3-3-3-3-3-0-0-0-0-0-0-3-3-|



----------------------------|---------------------------|-------------------|
----------------------------|---------------------2--5--|-------------------|
----------------------------|------------------3--------|--0----------------|
--5--5--5-5--5-5--5--5-5--5-|--5--5--5-5--5-5-----------|-------------------|



------------------|---------------------------|----------------------------|
------------------|---------------------------|----------------------------|
------------------|---------------------------|--------------3-3-----------|
------------------|--5--5--3-3-5----5--3-3-5--|----5--3-3-5------5--3-3-5--|



--------------------------|--------------------------|
--------------------------|--------------------------|
--------------------------|--------------3-3---------|
----5--3-3-5----5--3-3-5--|----5--3-3-5------5--3----|



---------------------------|----------------------------|
---------------------------|----------------------------|
---------------------------|--------------3-3-----------|
--5--5--3-3-5----5--3-3-5--|----5--3-3-5------5--3-3-5--|



--------------------------|-----------------------------|
--------------------------|-----------------------------|
--------------------------|--------------3-3------------|
----5--3-3-5----5--3-3-5--|----5--3-3-5------5----------|



---------------------------|----------------------------|
---------------------------|----------------------------|
---------------------------|--------------3-3-----------|
--5--5--3-3-5----5--3-3-5--|----5--3-3-5------5--3-3-5--|



--------------------------|--------------------------|
--------------------------|--------------------------|
--------------------------|--------------3-3---------|
----5--3-3-5----5--3-3-5--|----5--3-3-5------5--3----|



---------------------------|----------------------------|
---------------------------|----------------------------|
---------------------------|--------------3-3-----------|
--5--5--3-3-5----5--3-3-5--|----5--3-3-5------5--3-3-5--|



--------------------------|--------------------------|
--------------------------|--------------------------|
--------------------------|--------------3-3---------|
----5--3-3-5----5--3-3-5--|----5--3-3-5------5--3----|



--------------------------------|----------------------------------|
--------------------------------|----------------------------------|
----1-1-1-1-1-1-1-1-1-1-1-1-1-1-|--3-3-3-3-3-3-3-3-3-3-3-3-3-3-3-3-|
--------------------------------|----------------------------------|



----------------------------------|----------------------------------|
----------------------------------|----------------------------------|
----------------------------------|----------------------------------|
--1-1-1-1-1-1-1-1-1-1-1-1-1-1-1-1-|--3-3-3-3-3-3-3-3-3-3-3-3-3-3-3-3-|



--------------------------------|----------------------------------|
--------------------------------|----------------------------------|
----1-1-1-1-1-1-1-1-1-1-1-1-1-1-|--3-3-3-3-3-3-3-3-3-3-3-3-3-3-3-3-|
--------------------------------|----------------------------------|



--------------------------|--------------------------|
--------------------------|--------------------------|
--------------------------|--------------------------|
--0--0--0--0--0--0--0--0--|--1--1--1--1--1--1--3--3--|



----------------------------------|----------------------------------|
----------------------------------|----------------------------------|
----------------------------------|----------------------------------|
--5-5-5-5-5-5-3-3-5-5-5-5-5-5-3-3-|--5-5-5-5-5-5-3-3-5-5-5-5-5-5-3-3-|



----------------------------------|----------------------------------|
----------------------------------|----------------------------------|
----------------------------------|----------------------------------|
--3-3-3-3-3-3-3-3-3-3-3-3-3-3-3-3-|--3-3-3-3-3-3-3-3-0-0-0-0-0-0-3-3-|



----------------------------------|----------------------------------|
----------------------------------|----------------------------------|
----------------------------------|----------------------------------|
--5-5-5-5-5-5-3-3-5-5-5-5-5-5-3-3-|--5-5-5-5-5-5-3-3-5-5-5-5-5-5-3-3-|



----------------------------------|----------------------------------|
----------------------------------|----------------------------------|
----------------------------------|----------------------------------|
--3-3-3-3-3-3-3-3-3-3-3-3-3-3-3-3-|--3-3-3-3-3-3-3-3-0-0-0-0-0-0-0-0-|



--------------------------|-------------------------|
--------------------------|----------------------5--|
-----------------------3--|--------------3---5/7----|
--5--5--3--5--5--3--5-----|--5---3---5--------------|



-------------------------5--|--------------------------|
--7--5-5--7-7--7-5--5-7-----|--7--7-5--5---------------|
----------------------------|------------7---6---5-----|
----------------------------|-----------------------8--|



----------------------------|-------------------------|
----------------------------|----------------------5--|
-------------------------3--|--------------3---5/7----|
--5--5-3--3-5--5-3--3-5-----|--5---3---5--------------|



----------------------------|----------------------------|
--7--7-6--6-5--5-4--4-3--2--|--1--1-0--0-----------------|
----------------------------|------------4--4-3--3-2--1--|
----------------------------|----------------------------|



----------------------------------|----------------------------------|
----------------------------------|----------------------------------|
--------------3-3-3-3-3-3-3-3-3-3-|--5-5-5-5-5-5-7-7-7-7-7-7-7-7-7-7-|
--0-0-0-0-0-0---------------------|----------------------------------|



----------------------------------|----------------------------------|
----------------------------------|----------------------------------|
----------------------------------|--3-3-3-3-3-3-5-5-5-5-5-5-5-5-5-5-|
--3-3-3-3-3-3-5-5-5-5-5-5-5-5-5-5-|----------------------------------|



----------------------------------|----------------------------------|
----------------------------------|----------------------------------|
--------------3-3-3-3-3-3-3-3-3-3-|--5-5-5-5-5-5-7-7-7-7-7-7-7-7-7-7-|
--0-0-0-0-0-0---------------------|----------------------------------|



----------------------------------|--------------------|
----------------------------------|--------------------|
----------------------------------|--3------5----------|
--3-3-3-3-3-3-5-5-5-5-5-5-5-5-5-5-|--------------------|



----------------------------------|----------------------------------|
----------------------------------|----------------------------------|
--0-0-0-0-0-0-0-0-0-0-0-0-0-0-0-0-|--0-0-0-0-0-0-0-0-0-0-0-0-0-0-0-0-|
----------------------------------|----------------------------------|



----------------------------------|----------------------------------|
----------------------------------|----------------------------------|
----------------------------------|----------------------------------|
--1-1-1-1-1-1-1-1-1-1-1-1-1-1-1-1-|--1-1-1-1-1-1-1-1-1-1-1-1-3-3-3-3-|



----------------------------------|----------------------------------|
----------------------------------|----------------------------------|
--0-0-0-0-0-0-0-0-0-0-0-0-0-0-0-0-|--0-0-0-0-0-0-0-0-0-0-0-0-0-0-0-0-|
----------------------------------|----------------------------------|



----------------------------------|----------------------------------|
----------------------------------|----------------------------------|
----------------------------------|----------------------------------|
--1-1-1-1-1-1-1-1-1-1-1-1-1-1-1-1-|--1-1-1-1-1-1-1-1-1-1-1-1-3-3-3-3-|



----------------------------------|----------------------------------|
----------------------------------|----------------------------------|
--1-1-1-1-1-1-1-1-1-1-1-1-1-1-1-1-|--3-3-3-3-3-3-3-3-3-3-3-3-3-3-3-3-|
----------------------------------|----------------------------------|



----------------------------------|----------------------------------|
----------------------------------|----------------------------------|
----------------------------------|----------------------------------|
--1-1-1-1-1-1-1-1-1-1-1-1-1-1-1-1-|--3-3-3-3-3-3-3-3-3-3-3-3-3-3-3-3-|



----------------------------------|----------------------------------|
----------------------------------|----------------------------------|
--1-1-1-1-1-1-1-1-1-1-1-1-1-1-1-1-|--3-3-3-3-3-3-3-3-3-3-3-3-3-3-3-3-|
----------------------------------|----------------------------------|



--------------------------|--------------------------|
--------------------------|--------------------------|
--------------------------|--------------------------|
--0--0--0--0--0--0--0--0--|--1--1--1--1--1--1--3--3--|



----------------------------------|----------------------------------|
----------------------------------|----------------------------------|
----------------------------------|----------------------------------|
--5-5-5-5-5-5-3-3-5-5-5-5-5-5-3-3-|--5-5-5-5-5-5-3-3-5-5-5-5-5-5-3-3-|



----------------------------------|----------------------------------|
----------------------------------|----------------------------------|
----------------------------------|----------------------------------|
--3-3-3-3-3-3-3-3-3-3-3-3-3-3-3-3-|--3-3-3-3-3-3-3-3-0-0-0-0-0-0-3-3-|



----------------------------------|----------------------------------|
----------------------------------|----------------------------------|
----------------------------------|----------------------------------|
--5-5-5-5-5-5-3-3-5-5-5-5-5-5-3-3-|--5-5-5-5-5-5-3-3-5-5-5-5-5-5-3-3-|



----------------------------------|----------------------------------|
----------------------------------|----------------------------------|
----------------------------------|----------------------------------|
--3-3-3-3-3-3-3-3-3-3-3-3-3-3-3-3-|--3-3-3-3-3-3-3-3-3-3-3-3-3-3-3-3-|



----------------------------------|----------------------------------|
----------------------------------|----------------------------------|
--2-2-2-2-2-2-2-2-2-2-2-2-2-2-2-2-|--2-2-2-2-2-2-2-2-2-2-2-2-2-2-2-2-|
----------------------------------|----------------------------------|



----------------------------------|----------------------------------|
----------------------------------|----------------------------------|
--0-0-0-0-0-0-0-0-0-0-0-0-0-0-0-0-|--0-0-0-0-0-0-0-0-0-0-0-0-0-0-0-0-|
----------------------------------|----------------------------------|



----------------------------------|----------------------------------|
----------------------------------|----------------------------------|
--2-2-2-2-2-2-2-2-2-2-2-2-2-2-2-2-|--2-2-2-2-2-2-2-2-2-2-2-2-2-2-2-2-|
----------------------------------|----------------------------------|



----------------------------------|----------------------------------|
----------------------------------|----------------------------------|
--0-0-0-0-0-0-0-0-0-0-0-0-0-0-0-0-|--0-0-0-0-0-0-0-0---------0-0-0-0-|
----------------------------------|------------------2-2-2-2---------|



----------------------------------|----------------------------------|
----------------------------------|----------------------------------|
--2-2-2-2-2-2-2-2-2-2-2-2-2-2-2-2-|--7-7-7-7-7-7-7-7-7-7-7-7-7-7-7-7-|
----------------------------------|----------------------------------|



----------------------------------|----------------------------------|
--5-5-5-5-5-5-5-5-5-5-5-5-5-5-5-5-|----------------------------------|
----------------------------------|--0-0-0-0-0-0-0-0-0-0-0-0-0-0-0-0-|
----------------------------------|----------------------------------|



----------------------------------|----------------------------------|
----------------------------------|----------------------------------|
--2-2-2-2-2-2-2-2-2-2-2-2-2-2-2-2-|--7-7-7-7-7-7-7-7-7-7-7-7-7-7-7-7-|
----------------------------------|----------------------------------|



-------------------|------------------|------------------|------------------||
-------------------|------------------|------------------|------------------||
-------------------|------------------|------------------|------------------||
--7/---------------|------------------|------------------|------------------||
  development and support by
dmitry ivanov