rock
 
|tablatures   |lyrics   |discussion forums   |more tabs @ XGuitar.com

Helloween tabs

Sole Survivor guitar tab

ENJOY

--------------------------------
---------------------------------------------
------------------7--------------------------
-----9----7---9---5---7---9----7----5---5----
-----7----5---7-------5---7----5----3---3----
--------------------------------------------



---------------------------------------------
---------------------------------------------
--------------7------------------------------
--9---7---9---5---7----9--9-----7-7---------
--7---5---7-------5----7--7-----5-5---------
--------------------------------------------

(Intro solo)


---------------------------------|-------------------------------
---------------------------------|-------------------------------
---------------------------------|-------------------------------
--9-------------9---------9------|-------------------------------
--7---7-7-7-7---7---7-7---7----5-|-7---3---5---2---3-----2-------
---------------------------------|--------------------5-----3----
                                 |
                                 | This part second time
---------------------------------|--------------------------------
---------------------------------|-----------------------------------
---------------------------------|--------------------------------
--9-------------9---------9------|--------------------------------
--7---7-7-7-7---7---7-7---7----9-|-10--7---9---5---7---3--5--2----
---------------------------------|--------------------------------




---------------------------------|------------------------------------
---------------------------------|------------------------------------
---------------------------------|------------------------------------
---------------------------------|------------------------------------
--3---3-3-3-3---3---3-3---3----5-|-7---3---5---2---3-------2----------
---------------------------------|---------------------5------3-------
                                 |
                                 |   This part 2nd  time
---------------------------------|------------------------------------
---------------------------------|------------------------------------
---------------------------------|------------------------------------
---------------------------------|------------------------------------
--3---3-3-3-3---3---3-3---3----9-|-10--7---9---5---7---3---5---2------
---------------------------------|------------------------------------




(Harmony solo)


VERSE

  E                               E        C
--------------------------------|-------|-----------------------------
--------------------------------|-------|-----------------------------
--------------------------------|--0-/--|-----------------------------
--------------------------------|---/---|-----------------------------
--------------------------------|--/-0--|----------------------------
---0-0-0-0 -0-0-0-----0-0--0----|-------|-3-3-3-3- -3-3-3----3-3-3---


                                 BRIDGE

D                     B            G         D       C
---------------------------------|------------------|---------------|-
---------------------------------|------------------|---------------|-
---------------------------------|------------------|---------------|-
---------------------4---4-------|------------------|---------------|-
-5-5-5-5--5-5---5----2---2-------|----------5-5-5-5-|-3-3-3-3-3-3-3-|-
---------------------------------|-3-3-3-3----------|---------------|-

    C        D        E          G            C       E        D
--------------------------------------------|------------------
--------------------------------------------|------------------
--------------------------------------------|------------------
-2-2-2-2--4-4-4-4---5-5-5-5----9--9--9--9---|---------5-5-5-5---
-3-3-3-3--5-5-5-5---7-7-7-7---10-10-10-10---|-3-3-3-3-----------
--------------------------------------------|-------------------

                                         CHORUS

   D                                    E               C          A
-------------------|------------------|-------------------|-----------
-------------------|------------------|-------------------|-----------
-------------------|------------------|-------------------|-----------
-------------------|------------------|-----------------5-|--(5)--2---
--5-5-5-5-5-5-5-5--|-5-7-3-5-2-3-0-2--|-7-7-7-7-7-9-10--3-|--(3)--0---
-------------------|------------------|-------------------|-----------


  D                                    E             C           A
-------------------|-----------------|------------------|----------
-------------------|-----------------|------------------|----------
-------------------|-----------------|------------------|----------
-------------------|-----------------|---------------5--|-(5)---2--
--5-5-5-5--5-7-9-5-|-7-3-5-2-3---2---|---------------3--|-(3)---0--
-------------------|-----------5---3-|-0-0-0-0-0-2-3----|----------



  D
------------------|-----------------  S
------------------|-----------------  0
------------------|-----------------  L
------------------|-----------------  O
--5-5-5-5-5-7-9-5-|-7-3-5-2-3---2--- HERE
------------------|-----------5---3-


Final riff

E     D       G   E
|-------------------------
|-------------------------
|-------------------------
|-9-----7-----------------
|-7-----5-------5---2-----
|----0-----0-0--3---0-----
  development and support by
dmitry ivanov