rock
 
|tablatures   |lyrics   |discussion forums   |more tabs @ XGuitar.com

Helloween tabs

Sole Survivor bass tab

tune down

F#||------------------|---------------------|----------------------|
C#||------------------|---------------------|----------------------|
G#||------------------|--7------5------7----|----10------5----7----|
D#||------------------|---------------------|----------------------|



---------------------|------------------|---------------------|
---------------------|------------------|---------------------|
--5------3------3----|------------------|--7------5------7----|
---------------------|------------------|---------------------|



----------------------|---------------------|------------------|
----------------------|---------------------|------------------|
----10------5----7----|--7------5------5----|------------------|
----------------------|---------------------|------------------|



---------------------|----------------------|---------------------|
---------------------|----------------------|---------------------|
--7------5------7----|----10------5----7----|--5------3------3----|
---------------------|----------------------|---------------------|



------------------|---------------------|----------------------|
------------------|---------------------|----------------------|
------------------|--7------5------7----|----10------5----7----|
------------------|---------------------|----------------------|



---------------------|------------------|--21--21--21--21--|
---------------------|------------------|------------------|
--7------5------5----|------------------|------------------|
---------------------|------------------|------------------|



--------------------------|------------------|--------------------------|
--------------------------|------------------|--------------------------|
--7-7-7-7-7-7-7----7------|------------------|--3-3-3-3-3-3-3----3------|
--------------------------|------------------|--------------------------|



------------------|--------------------------|------------------|
------------------|--------------------------|------------------|
------------------|--7-7-7-7-7-7-7----7------|------------------|
------------------|--------------------------|------------------|



--------------------------|------------------|---------------------------|
--------------------------|------------------|---------------------------|
--3-3-3-3-3-3-3----3------|------------------|--7-7-7-7-7-7-7----7----5--|
--------------------------|------------------|---------------------------|



--------------------------|---------------------------|
--------------------------|---------------------------|
--7--3--5--2--3--0--2-----|--3-3-3-3-3-3-3----3----5--|
-----------------------3--|---------------------------|



--------------------------|---------------------------|
--------------------------|---------------------------|
--7--3--5--2--3--0--2-----|--7-7-7-7-7-7-7----7----5--|
-----------------------3--|---------------------------|



--------------------------|---------------------------|
--------------------------|---------------------------|
--7--3--5--2--3--0--2-----|--3-3-3-3-3-3-3----3----5--|
-----------------------3--|---------------------------|



--------------------------|------------------------|------------------------|
--------------------------|------------------------|------------------------|
--7--3--5--2--3--0--2-----|--7---7---7--7---7---7--|------------------------|
-----------------------3--|------------------------|--3---3---3--3---3---3--|



------------------------|------------------------|------------------------|
------------------------|------------------------|------------------------|
------------------------|------------------------|--7---7---7--7---7---7--|
--3---3---3--3---3---3--|--2---2---2--2---2---2--|------------------------|



------------------------|------------------------|-------------------|
------------------------|------------------------|-------------------|
------------------------|------------------------|-------------------|
--3---3---3--3---3---3--|--3---3---3--3---3---3--|--2----------------|



----------------------------|----------------------------|
----------------------------|----------------------------|
----------------------------|----------------------------|
--0-0-0-0-0-0-0----0-0-0----|--0-0-0-0-0-0-0----0-0-0----|



----------------------------|---------------------------|
----------------------------|---------------------------|
--3-3-3-3-3-3-3----3-3-3----|--5-5-5-5-5-5-5----2--2----|
----------------------------|---------------------------|



----------------------------|----------------------------|
----------------------------|----------------------------|
----------------------------|----------------------------|
--0-0-0-0-0-0-0----0-0-0----|--0-0-0-0-0-0-0----0-0-0----|



----------------------------|---------------------------|
----------------------------|---------------------------|
--3-3-3-3-3-3-3----3-3-3----|--5-5-5-5-5-5-5----2--2----|
----------------------------|---------------------------|



----------------------------|----------------------------|
----------------------------|----------------------------|
----------------------------|----------------------------|
--0-0-0-0-0-0-0----0-0-0----|--0-0-0-0-0-0-0----0-0-0----|



----------------------------|---------------------------|
----------------------------|---------------------------|
--3-3-3-3-3-3-3----3-3-3----|--5-5-5-5-5-5-5----2--2----|
----------------------------|---------------------------|



----------------------------|----------------------------|
----------------------------|----------------------------|
----------------------------|----------------------------|
--0-0-0-0-0-0-0----0-0-0----|--0-0-0-0-0-0-0----0-0-0----|



----------------------------|---------------------------|
----------------------------|---------------------------|
--3-3-3-3-3-3-3----3-3-3----|--5-5-5-5-5-5-5----2--2----|
----------------------------|---------------------------|



--------------------------|--------------------------|--------5----------7----|
--------------------------|--------------------------|------------------------|
--------------5--5--5--5--|--3--3--3--3--3--3--3--3--|--3--3-------5--5-------|
--3--3--3--3--------------|--------------------------|------------------------|



--------9------------12----|--------------------------|
---------------------------|--------------2--2--2--2--|
--7--7-------10--10--------|--3--3--3--3--------------|
---------------------------|--------------------------|



--------------------------|--------------------------|
--------------------------|--------------------------|
--5--5--5--5--5--5--5--5--|--7--3--5--2--3--0--2-----|
--------------------------|-----------------------3--|



--------------------------|-----------------------|--------------------------|
--------------------------|-----------------------|--------------------------|
-----------------------3--|----3----3--3--3-------|--5--5--5--5--5--7--9--5--|
--0--0--0--0--0--2--3-----|------------------5----|--------------------------|



--------------------------|--------------------------|-----------------------|
--------------------------|--------------------------|-----------------------|
--7--3--5--2--3-----2-----|-----------------------3--|----3----3--3--3-------|
-----------------5-----3--|--0--0--0--0--0--2--3-----|------------------5----|



--------------------------|--------------------------|------------------------|
--------------------------|--------------------------|------------------------|
--5--5--5--5--5--7--9--5--|--7--3--5--2--3-----2-----|--7---7---7--7---7---7--|
--------------------------|-----------------5-----3--|------------------------|



------------------------|------------------------|-------------------|
------------------------|------------------------|-------------------|
------------------------|------------------------|-------------------|
--3---3---3--3---3---3--|--3---3---3--3---3---3--|--2----------------|



----------------------------|----------------------------|
----------------------------|----------------------------|
----------------------------|----------------------------|
--0-0-0-0-0-0-0----0-0-0----|--0-0-0-0-0-0-0----0-0-0----|



----------------------------|---------------------------|
----------------------------|---------------------------|
--3-3-3-3-3-3-3----3-3-3----|--5-5-5-5-5-5-5----2--2----|
----------------------------|---------------------------|



----------------------------|----------------------------|
----------------------------|----------------------------|
----------------------------|----------------------------|
--0-0-0-0-0-0-0----0-0-0----|--0-0-0-0-0-0-0----0-0-0----|



----------------------------|---------------------------|
----------------------------|---------------------------|
--3-3-3-3-3-3-3----3-3-3----|--5-5-5-5-5-5-5----2--2----|
----------------------------|---------------------------|



----------------------------|----------------------------|
----------------------------|----------------------------|
----------------------------|----------------------------|
--0-0-0-0-0-0-0----0-0-0----|--0-0-0-0-0-0-0----0-0-0----|



----------------------------|---------------------------|
----------------------------|---------------------------|
--3-3-3-3-3-3-3----3-3-3----|--5-5-5-5-5-5-5----2--2----|
----------------------------|---------------------------|



----------------------------|----------------------------|
----------------------------|----------------------------|
----------------------------|----------------------------|
--0-0-0-0-0-0-0----0-0-0----|--0-0-0-0-0-0-0----0-0-0----|



----------------------------|---------------------------|
----------------------------|---------------------------|
--3-3-3-3-3-3-3----3-3-3----|--5-5-5-5-5-5-5----2--2----|
----------------------------|---------------------------|



--------------------------|--------------------------|--------5----------7----|
--------------------------|--------------------------|------------------------|
--------------5--5--5--5--|--3--3--3--3--3--3--3--3--|--3--3-------5--5-------|
--3--3--3--3--------------|--------------------------|------------------------|



--------9------------12----|--------------------------|
---------------------------|--------------2--2--2--2--|
--7--7-------10--10--------|--3--3--3--3--------------|
---------------------------|--------------------------|



--------------------------|--------------------------|
--------------------------|--------------------------|
--5--5--5--5--5--5--5--5--|--7--3--5--2--3--0--2-----|
--------------------------|-----------------------3--|



--------------------------|-----------------------|--------------------------|
--------------------------|-----------------------|--------------------------|
-----------------------3--|----3----3--3--3-------|--5--5--5--5--5--7--9--5--|
--0--0--0--0--0--2--3-----|------------------5----|--------------------------|



--------------------------|--------------------------|-----------------------|
--------------------------|--------------------------|-----------------------|
--7--3--5--2--3-----2-----|-----------------------3--|----3----3--3--3-------|
-----------------5-----3--|--0--0--0--0--0--2--3-----|------------------5----|



--------------------------|--------------------------|
--------------------------|--------------------------|
--5--5--5--5--5--7--9--5--|--7--3--5--2--3-----2-----|
--------------------------|-----------------5-----3--|



--------------------------|-----------------------|--------------------------|
--------------------------|-----------------------|--------------------------|
-----------------------3--|----3----3--3--3-------|--5--5--5--5--5--7--9--5--|
--0--0--0--0--0--2--3-----|------------------5----|--------------------------|



--------------------------|--------------------------|-----------------------|
--------------------------|--------------------------|-----------------------|
--7--3--5--2--3-----2-----|-----------------------3--|----3----3--3--3-------|
-----------------5-----3--|--0--0--0--0--0--2--3-----|------------------5----|



--------------------------|--------------------------|
--------------------------|--------------------------|
--5--5--5--5--5--7--9--5--|--7--3--5--2--3-----2-----|
--------------------------|-----------------5-----3--|



----------------------------|----------------------------|
----------------------------|----------------------------|
----------------------------|----------------------------|
--0-0-0-0-0-0-0----0-0-0----|--0-0-0-0-0-0-0----0-0-0----|



----------------------------|----------------------|
----------------------------|----------------------|
----------------------------|--3------3------------|
--0-0-0-0-0-0-0----0-0-0----|----------------3--2--|



----------------------------|----------------------------|
----------------------------|----------------------------|
----------------------------|----------------------------|
--0-0-0-0-0-0-0----0-0-0----|--0-0-0-0-0-0-0----0-0-0----|



----------------------------|----------------------|
----------------------------|----------------------|
----------------------------|--3------3------------|
--0-0-0-0-0-0-0----0-0-0----|----------------3--2--|



----------------------------|----------------------------|
----------------------------|----------------------------|
----------------------------|----------------------------|
--0-0-0-0-0-0-0----0-0-0----|--0-0-0-0-0-0-0----0-0-0----|



----------------------------|----------------------|
----------------------------|----------------------|
----------------------------|--3------3------------|
--0-0-0-0-0-0-0----0-0-0----|----------------3--2--|



----------------------------|----------------------------|
----------------------------|----------------------------|
----------------------------|----------------------------|
--0-0-0-0-0-0-0----0-0-0----|--0-0-0-0-0-0-0----0-0-0----|



----------------------------|----------------------|--------------------------|
----------------------------|----------------------|--------------------------|
----------------------------|--3------3------------|--------------5--5--5--5--|
--0-0-0-0-0-0-0----0-0-0----|----------------3--2--|--3--3--3--3--------------|



--------------------------|--------5----------7----|--------9------------12----|
--------------------------|------------------------|---------------------------|
--3--3--3--3--3--3--3--3--|--3--3-------5--5-------|--7--7-------10--10--------|
--------------------------|------------------------|---------------------------|



--------------------------|--------------------------|
--------------2--2--2--2--|--------------------------|
--3--3--3--3--------------|--5--5--5--5--5--5--5--5--|
--------------------------|--------------------------|



--------------------------|--------------------------|
--------------------------|--------------------------|
--7--3--5--2--3--0--2-----|-----------------3--5-----|
-----------------------3--|--5--2--3--0--2--------3--|



--------------------------|-----------------------|--------------------------|
--------------------------|-----------------------|--------------------------|
-----------------------3--|----3----3--3--3-------|--5--5--5--5--5--7--9--5--|
--0--0--0--0--0--2--3-----|------------------5----|--------------------------|



--------------------------|--------------------------|-----------------------|
--------------------------|--------------------------|-----------------------|
--7--3--5--2--3-----2-----|-----------------------3--|----3----3--3--3-------|
-----------------5-----3--|--0--0--0--0--0--2--3-----|------------------5----|



--------------------------|--------------------------|
--------------------------|--------------------------|
--5--5--5--5--5--7--9--5--|--7--3--5--2--3-----2-----|
--------------------------|-----------------5-----3--|



--------------------------|-----------------------|--------------------------|
--------------------------|-----------------------|--------------------------|
-----------------------3--|----3----3--3--3-------|--5--5--5--5--5--7--9--5--|
--0--0--0--0--0--2--3-----|------------------5----|--------------------------|



--------------------------|--------------------------|-----------------------|
--------------------------|--------------------------|-----------------------|
--7--3--5--2--3-----2-----|-----------------------3--|----3----3--3--3-------|
-----------------5-----3--|--0--0--0--0--0--2--3-----|------------------5----|



--------------------------|--------------------------|
--------------------------|--------------------------|
--5--5--5--5--5--7--9--5--|--7--3--5--2--3-----2-----|
--------------------------|-----------------5-----3--|



---------------------------|--------------------------|
---------------------------|--------------------------|
--7-7-7-7-7-7-7----7----5--|--7--3--5--2--3--0--2-----|
---------------------------|-----------------------3--|



---------------------------|--------------------------|
---------------------------|--------------------------|
--3-3-3-3-3-3-3----3----5--|--7--3--5--2--3--0--2-----|
---------------------------|-----------------------3--|



---------------------------|--------------------------|
---------------------------|--------------------------|
--7-7-7-7-7-7-7----7----5--|--7--3--5--2--3--0--2-----|
---------------------------|-----------------------3--|



---------------------------|--------------------------|
---------------------------|--------------------------|
--3-3-3-3-3-3-3----3----5--|--7--3--5--2--3--0--2-----|
---------------------------|-----------------------3--|



--------------------------|--0-----0-----------------|
--2-----2-----2-----2-----|-----0-----0-----0--------|
-----2-----2-----2-----2--|--------------2-----2-----|
--------------------------|-----------------------3--|



--------------------------|--------------------------|
--------------------------|--2--0-----0--------------|
--3-----3-----3-----3-----|--------2-----2--0--------|
-----3-----3-----3-----3--|--------------------3--0--|



--------------------------------|-------------------|--7----------------|
--------------------------------|-------------------|--7----------------|
--------------7----------7------|--5----------------|--5----------------|
--0-0-0-0-0-0----0-0-0-0----0-0-|-------------------|-------------------|



------------------|------------------|------------------|------------------|
------------------|------------------|------------------|------------------|
------------------|------------------|------------------|------------------|
------------------|------------------|------------------|------------------|



------------------|------------------|------------------|
------------------|------------------|------------------|
------------------|------------------|------------------|
------------------|------------------|------------------|



-----------------------|-------------------||
-----------------------|-------------------||
--7------5----5--10----|--7----------------||
-----------------------|-------------------||
  development and support by
dmitry ivanov