rock
 
|tablatures   |lyrics   |discussion forums   |more tabs @ XGuitar.com

Helloween tabs

Save Us bass tab

G||------------------|------------------|------------------|------------------|
D||------------------|------------------|------------------|------------------|
A||------------------|------------------|------------------|------------------|
E||------------------|------------------|------------------|------------------|



------------------|------------------|------------------|------------------|
------------------|------------------|------------------|------------------|
------------------|------------------|------------------|------------------|
------------------|------------------|------------------|------------------|



------------------|-------------------|------------------|------------------|
------------------|-------------------|------------------|------------------|
------------------|-------------------|------------------|------------------|
------------------|--2----------------|------------------|------------------|



---------------------|--------------------|------------------|
---------------------|--------------------|------------------|
--0-------------2----|--------------------|------------------|
---------0-----------|--0----2------------|------------------|



------------------|---------------------|------------------|------------------|
------------------|---------------------|------------------|------------------|
------------------|--2------0-----------|------------------|------------------|
------------------|----------------0----|------------------|------------------|



------------------|------------------|------------------|------------------|
------------------|------------------|------------------|------------------|
------------------|------------------|------------------|------------------|
------------------|------------------|------------------|------------------|



------------------|------------------|--------------------------|
------------------|------------------|--------------------------|
------------------|------------------|--------------------------|
------------------|------------------|--0--2--2--2--2--2--2--2--|



--------------------------|--------------------------|---------------------|
--------------------------|--------------------------|---------------------|
--------------------------|--------------------------|--0-------------2----|
--0--2--2--2--2--2--2--2--|--0--2--2--2--2--2--2--2--|---------0-----------|



--------------------------|--------------------------|
--------------------------|--------------------------|
--------------------------|--------------------------|
--0--2--2--2--2--2--2--2--|--0--2--2--2--2--2--2--2--|



--------------------------|---------------------|----------------------|
--------------------------|---------------------|----------------------|
--------------------------|--2------0-----------|----------------------|
--0--2--2--2--2--2--2--2--|----------------0----|--0----2--------2--2--|



----------------------|----------------------|---------------------|
----------------------|----------------------|---------------------|
----------------------|----------------------|--0-------------2----|
--0----2--------2--2--|--0----2--------2--2--|---------0-----------|



--------------------------|------------------------|--------------------------|
--------------------------|------------------------|--------------------------|
--------------------------|--0---------------------|--------------------------|
--0--0--0--0--0--0--0--0--|-------0--4----0--0--0--|--0--2--2--2--2--2--2--2--|



---------------------|----------------------|----------------------|
---------------------|----------------------|----------------------|
--2------0-----------|----------------------|----------------------|
----------------0----|--0----2--------2--2--|--0----2--------2--2--|



----------------------|---------------------|--------------------------|
----------------------|---------------------|--2--2--2--2--2--2--2--2--|
----------------------|--0-------------2----|--------------------------|
--0----2--------2--2--|---------0-----------|--------------------------|



--------------------------|--------------------------|
--2--2--2--2--2--2--2--2--|--0--0--0--0--0--0--0--0--|
--------------------------|--------------------------|
--------------------------|--------------------------|



--------------------------|--------------------------|-------------------|
--0--0--0--0--0--0--0--0--|--0--0--0--0--0--0--0--0--|--0----------------|
--------------------------|--------------------------|-------------------|
--------------------------|--------------------------|-------------------|



----------------------|----------------------|----------------------|
----------------------|----------------------|----------------------|
----------------------|----------------------|----------------------|
--0----2--------2--2--|--0----2--------2--2--|--0----2--------2--2--|



---------------------|--------------------------|--------------------------|
---------------------|--------------------------|--------------------------|
--0-------------2----|--------------------------|--------------------------|
---------0-----------|--0--0--0--0--0--0--0--0--|--0--0--0--0--0--0--0--0--|



------------------------|---------------------|--------------------------|
-------2----------------|---------------------|--------------------------|
--5---------------------|--5------5------2----|--------------------------|
------------0--0--0--0--|---------------------|--0--0--0--0--0--0--0--0--|



--------------------------|---------------------|---------------------|
--------------------------|---------------------|---------------------|
--------------------------|--5------5------5----|----5------5----5----|
--0--0--0--0--0--0--0--0--|---------------------|---------------------|



--------------------------|--------------------------|------------------------|
--------------------------|--------------------------|-------2----------------|
--------------------------|--------------------------|--5---------------------|
--0--0--0--0--0--0--0--0--|--0--0--0--0--0--0--0--0--|------------0--0--0--0--|



---------------------|--------------------------|--------------------------|
---------------------|--------------------------|--------------------------|
--5------5------2----|--------------------------|--------------------------|
---------------------|--0--0--0--0--0--0--0--0--|--0--0--0--0--0--0--0--0--|



---------------------|---------------------|----------------------|
---------------------|---------------------|----------------------|
--5------5------5----|----5------5----5----|----------------------|
---------------------|---------------------|--0----2--------2--2--|



----------------------|----------------------|---------------------|
----------------------|----------------------|---------------------|
----------------------|----------------------|--0-------------2----|
--0----2--------2--2--|--0----2--------2--2--|---------0-----------|



--------------------------|------------------------|--------------------------|
--------------------------|------------------------|--------------------------|
--------------------------|--0---------------------|--------------------------|
--0--0--0--0--0--0--0--0--|-------0--4----0--0--0--|--0--2--2--2--2--2--2--2--|



---------------------|----------------------|----------------------|
---------------------|----------------------|----------------------|
--2------0-----------|----------------------|----------------------|
----------------0----|--0----2--------2--2--|--0----2--------2--2--|



----------------------|---------------------|--------------------------|
----------------------|---------------------|--2--2--2--2--2--2--2--2--|
----------------------|--0-------------2----|--------------------------|
--0----2--------2--2--|---------0-----------|--------------------------|



--------------------------|--------------------------|
--2--2--2--2--2--2--2--2--|--0--0--0--0--0--0--0--0--|
--------------------------|--------------------------|
--------------------------|--------------------------|



--------------------------|--------------------------|-------------------|
--0--0--0--0--0--0--0--0--|--0--0--0--0--0--0--0--0--|--0----------------|
--------------------------|--------------------------|-------------------|
--------------------------|--------------------------|-------------------|



----------------------|----------------------|----------------------|
----------------------|----------------------|----------------------|
----------------------|----------------------|----------------------|
--0----2--------2--2--|--0----2--------2--2--|--0----2--------2--2--|



---------------------|--------------------------|--------------------------|
---------------------|--------------------------|--------------------------|
--0-------------2----|--------------------------|--------------------------|
---------0-----------|--0--0--0--0--0--0--0--0--|--0--0--0--0--0--0--0--0--|



------------------------|---------------------|--------------------------|
-------2----------------|---------------------|--------------------------|
--5---------------------|--5------5------2----|--------------------------|
------------0--0--0--0--|---------------------|--0--0--0--0--0--0--0--0--|



--------------------------|---------------------|---------------------|
--------------------------|---------------------|---------------------|
--------------------------|--5------5------5----|----5------5----5----|
--0--0--0--0--0--0--0--0--|---------------------|---------------------|



--------------------------|--------------------------|------------------------|
--------------------------|--------------------------|-------2----------------|
--------------------------|--------------------------|--5---------------------|
--0--0--0--0--0--0--0--0--|--0--0--0--0--0--0--0--0--|------------0--0--0--0--|



---------------------|--------------------------|--------------------------|
---------------------|--------------------------|--------------------------|
--5------5------2----|--------------------------|--------------------------|
---------------------|--0--0--0--0--0--0--0--0--|--0--0--0--0--0--0--0--0--|



---------------------|---------------------|-------------------|
---------------------|---------------------|-------------------|
--5------5------5----|----5------5----5----|--9----------------|
---------------------|---------------------|-------------------|



-------------------|-------------------|------------------|-------------------|
-------------------|-------------------|------------------|-------------------|
-------------------|--7----------------|------------------|--9----------------|
--------------9----|-------------------|------------------|-------------------|



-------------------|-------------------|------------------|-------------------|
-------------------|-------------------|------------------|-------------------|
-------------------|--7----------------|------------------|--9----------------|
--------------9----|-------------------|------------------|-------------------|



-------------------|-------------------|------------------|-------------------|
-------------------|-------------------|------------------|-------------------|
-------------------|--7----------------|------------------|--9----------------|
--------------9----|-------------------|------------------|-------------------|



-------------------|-------------------|------------------|
-------------------|-------------------|------------------|
-------------------|--7----------------|------------------|
--------------9----|-------------------|------------------|



--------------------------|--------------------------|
--------------------------|--------------------------|
--0--0--0--0--0--0--0--0--|--0--0--0--0--0--0--0--0--|
--------------------------|--------------------------|



--------------------------|--------------------------|
--2--2--2--2--2--2--2--2--|--2--2--2--2--2--2--2--2--|
--------------------------|--------------------------|
--------------------------|--------------------------|



--------------------------|--------------------------|
--0--0--0--0--0--0--0--0--|--0--0--0--0--------------|
--------------------------|--------------4--4--4--4--|
--------------------------|--------------------------|



--------------------------|--------------------------|
--4--4--4--4--4--4--4--4--|--4--4--4--4--4--4--4--4--|
--------------------------|--------------------------|
--------------------------|--------------------------|



--------------------------|--------------------------|
--------------------------|--------------------------|
--0--0--0--0--0--0--0--0--|--0--0--0--0--0--0--0--0--|
--------------------------|--------------------------|



--------------------------|--------------------------|---------------------|
--2--2--2--2--2--2--2--2--|--2--2--2--2--2--2--2--2--|---------------------|
--------------------------|--------------------------|--4------2------4----|
--------------------------|--------------------------|---------------------|



------------------|---------------------|------------------|
------------------|---------------------|------------------|
------------------|--4------2------4----|------------------|
------------------|---------------------|------------------|



--------------------------|--------------------------|
--1--1--1--1--1--1--1--1--|--1--1--1--1--1--1--1--1--|
--------------------------|--------------------------|
--------------------------|--------------------------|



--------------------------|--------------------------|
--1--1--------------------|--------------------------|
--------2--2--2--2--2--2--|--2--2--2--2--2--2--2--2--|
--------------------------|--------------------------|



--------------------------|--------------------------|
--------------------------|-----------------1--------|
--4--4--4--4--4--4--4--4--|--4--4--4--4--4-----4--2--|
--------------------------|--------------------------|



--------------------------|--------------------------|
--------------------------|--------------------------|
--1--1--1--1--1--1--1--1--|--1--1--1--1--1--1--1--1--|
--------------------------|--------------------------|



--------------------------|--------------------------|--------------------|
--------------------------|--------------------------|--------------------|
--1--2--2--2--2--2--2--2--|--2--2--2--2--2--2--2--2--|--2-----------------|
--------------------------|--------------------------|-----------4--------|



--------------------|--------------------------|--------------------------|
--------------------|--------------------------|--------------------------|
--1--------2--------|--1--1--1--1--1--1--1--1--|--1--1--------------------|
--------------------|--------------------------|--------1--1--1--1--4--4--|



--------------------------|--------------------------|
--------------------------|--------------------------|
--1--1--1--1--1--1--1--1--|--1--1--1--1--1--1--1--1--|
--------------------------|--------------------------|



--------------------------|--------------------------|
--1--1--1--1--1--1--1--1--|--1--1--1--1--1--1--1--1--|
--------------------------|--------------------------|
--------------------------|--------------------------|



--------------------------|--------------------------|
--1--1--------------------|--------------------------|
--------2--2--2--2--2--2--|--2--2--2--2--2--2--2--2--|
--------------------------|--------------------------|



--------------------------|--------------------------|
--------------------------|-----------------1--------|
--4--4--4--4--4--4--4--4--|--4--4--4--4--4-----4--2--|
--------------------------|--------------------------|



--------------------------|--------------------------|
--------------------------|--------------------------|
--1--1--1--1--1--1--1--1--|--1--1--1--1--1--1--1--1--|
--------------------------|--------------------------|



--------------------------|--------------------------|--------------------|
--------------------------|--------------------------|--------------------|
--1--2--2--2--2--2--2--2--|--2--2--2--2--2--2--2--2--|--2-----------------|
--------------------------|--------------------------|-----------4--------|



--------------------|--------------------------|--------------------------|
--------------------|--------------------------|--------------------------|
--1--------2--------|--1--1--1--1--1--1--1--1--|--1--1--------------------|
--------------------|--------------------------|--------1--1--1--1--4--4--|



--------------------------|--------------------------|
--------------------------|--------------------------|
--1--1--1--1--1--1--1--1--|--1--1--1--1--1--1--1--1--|
--------------------------|--------------------------|



--------------------------|--------------------------|
--------------------------|--------------------------|
--3--3--3--3--3--3--3--3--|--3--3--3--3--3--3--3--3--|
--------------------------|--------------------------|



--------------------------|---------------------|--------------------------|
--------------------------|---------------------|--------------------------|
--------------------------|----------------1----|--3--3--3--3--3--3--3--3--|
--4--4--4--4--4--4--4--4--|--4------4-----------|--------------------------|



--------------------------|--------------------------|---------------------|
--------------------------|--------------------------|---------------------|
--3--3--3--3--3--3--3--3--|--------------------------|----------------1----|
--------------------------|--4--4--4--4--4--4--4--4--|--4------4-----------|



--------------------------|--------------------------|
--------------------------|--------------------------|
--3--3--3--3--3--3--3--3--|--3--3--3--3--3--3--3--3--|
--------------------------|--------------------------|



--------------------------|--------------------------|-------------------|
--------------------------|--------------------------|-------------------|
--------------------------|--------------------------|-------------------|
--4--4--4--4--4--4--4--4--|--4--4--4--4--4--4--4--4--|--1----------------|



------------------|--------------------------|--------------------------|
------------------|--------------------------|--------------------------|
------------------|--------------------------|--------------------------|
------------------|--3--3--3--3--3--3--3--3--|--3--3--3--3--3--3--3--3--|



--------------------------|--------------------------|
--------------------------|--------------------------|
--3--3--3--3--3--3--3--3--|--3--3--3--3--3--3--3--3--|
--------------------------|--------------------------|



--------------------------|--------------------------|
--------------------------|--------------------------|
--------------------------|--------------------1--1--|
--4--4--4--4--4--4--4--4--|--4--4--4--4--4--4--------|



--------------------------|--------------------------|
--------------------------|--------------------------|
--3--3--3--3--3--3--3--3--|--3--3--3--3--3--3--3--3--|
--------------------------|--------------------------|



--------------------------|--------------------------|
--------------------------|--------------------------|
--------------------------|--------------------1--1--|
--4--4--4--4--4--4--4--4--|--4--4--4--4--4--4--------|



--------------------------|--------------------------|
--------------------------|--------------------------|
--3--3--3--3--3--3--3--3--|--3--3--3--3--3--3--3--3--|
--------------------------|--------------------------|



--------------------------|--------------------------|-------------------|
--------------------------|--------------------------|-------------------|
--------------------------|--------------------------|-------------------|
--4--4--4--4--4--4--4--4--|--4--4--4--4--4--4--4--4--|--1----------------|



------------------|--------------------------|--------------------------|
------------------|--------------------------|--------------------------|
------------------|--------------------------|--------------------------|
------------------|--3--3--3--3--3--3--3--3--|--3--3--3--3--3--3--3--3--|



--------------------------|-------------------|--------------------------|
--------------------------|-------------------|--0--0--0--0--0--0--0--0--|
--------------------------|-------------------|--------------------------|
--3--3--3--3--3--3--3--3--|--3----------------|--------------------------|



--------------------------|--------------------------|
--0--0--0--0--0--0--0--0--|--0--0--0--0--0--0--0--0--|
--------------------------|--------------------------|
--------------------------|--------------------------|



--------------------------|--------------------------|
--3--3--3--3--3--3--3--3--|--0--0--0--0--0--0--0--0--|
--------------------------|--------------------------|
--------------------------|--------------------------|



--------------------------|--------------------------|
--0--0--0--0--0--0--0--0--|--0--0--0--0--0--0--0--0--|
--------------------------|--------------------------|
--------------------------|--------------------------|



--------------------------|--------------------------|
--3--3--3--3--3--3--3--3--|--0--0--0--0--0--0--0--0--|
--------------------------|--------------------------|
--------------------------|--------------------------|



--------------------------|--------------------------|
--0--0--0--0--0--0--0--0--|--0--0--0--0--0--0--0--0--|
--------------------------|--------------------------|
--------------------------|--------------------------|



--------------------------|--------------------------|
--3--3--3--3--3--3--3--3--|--0--0--0--0--0--0--0--0--|
--------------------------|--------------------------|
--------------------------|--------------------------|



--------------------------|--------------------------|
--0--0--0--0--0--0--0--0--|--0--0--0--0--0--0--0--0--|
--------------------------|--------------------------|
--------------------------|--------------------------|



--------------------------|--------------------------|
--3--3--3--3--3--3--3--3--|--0--0--0--0--0--0--0--0--|
--------------------------|--------------------------|
--------------------------|--------------------------|



--------------------------|--------------------------|
--0--0--0--0--0--0--0--0--|--3--3--3--3--3--3--3--3--|
--------------------------|--------------------------|
--------------------------|--------------------------|



--------------------------|--------------------------|
--3--3--3--3--3--3--3--3--|--------------------------|
--------------------------|--------------------------|
--------------------------|--3--3--3--3--3--3--3--3--|



--------------------------|--------------------------|---------------------|
--------------------------|--------------------------|---------------------|
--------------------------|--------------------------|---------------------|
--3--3--3--3--3--3--3--3--|--3--3--3--3--3--3--3--3--|--0----1-------------|



--------------------------|--------------------------|
--------------------------|--------------------------|
--------------------------|--------------------------|
--0--2--2--2--2--2--2--2--|--0--2--2--2--2--2--2--2--|



--------------------------|----------------------|--------------------------|
--------------------------|----------------------|--------------------------|
--------------------------|--0-------------2-----|--------------------------|
--0--2--2--2--2--2--2--2--|---------0------------|--0--0--0--0--0--0--0--0--|



--------------------------|--------------------------|----------------------|
--------------------------|--------------------------|----------------------|
--------------------------|--------------------------|--2------0------------|
--0--0--0--0--0--0--0--0--|--0--2--2--2--2--2--2--2--|----------------0-----|



--------------------------|--------------------------|
--------------------------|--------------------------|
--------------------------|--------------------------|
--0--2--2--2--2--2--2--2--|--0--2--2--2--2--2--2--2--|



--------------------------|----------------------|--------------------------|
--------------------------|----------------------|--2--2--2--2--2--2--2--2--|
--------------------------|--0-------------2-----|--------------------------|
--0--2--2--2--2--2--2--2--|---------0------------|--------------------------|



--------------------------|--------------------------|
--2--2--2--2--2--2--2--2--|--0--0--0--0--0--0--0--0--|
--------------------------|--------------------------|
--------------------------|--------------------------|



--------------------------|--------------------------|-------------------|
--0--0--0--0--0--0--0--0--|--0--0--0--0--0--0--0--0--|--0----------------|
--------------------------|--------------------------|-------------------|
--------------------------|--------------------------|-------------------|



--------------------------|--------------------------|
--------------------------|--------------------------|
--------------------------|--------------------------|
--0--2--2--2--2--2--2--2--|--0--2--2--2--2--2--2--2--|



--------------------------|----------------------|--------------------------|
--------------------------|----------------------|--2--2--2--2--2--2--2--2--|
--------------------------|--0-------------2-----|--------------------------|
--0--2--2--2--2--2--2--2--|---------0------------|--------------------------|



--------------------------|------------------------|-------------------------|
--2--2--2--2--2--2--2--2--|-------2----2--2--2--2--|--0----0--0--0--0--0--0--|
--------------------------|--5---------------------|-------------------------|
--------------------------|------------------------|-------------------------|



--------------------------|--------------------------|-------------------------|
--2--2--2--2--2--2--2--2--|--2--2--2--2--2--2--2--2--|--0----0--0--0--0--0--0--|
--------------------------|--------------------------|-------------------------|
--------------------------|--------------------------|-------------------------|



--------------------------|--------------------------|
--0--0--0--0--0--0--0--0--|--2--2--2--2--2--2--2--2--|
--------------------------|--------------------------|
--------------------------|--------------------------|



--------------------------|------------------------|-------------------------|
--2--2--2--2--2--2--2--2--|-------2----2--2--2--2--|--0----0--0--0--0--0--0--|
--------------------------|--5---------------------|-------------------------|
--------------------------|------------------------|-------------------------|



--------------------------|--------------------------|-------------------------|
--2--2--2--2--2--2--2--2--|--2--2--2--2--2--2--2--2--|--0----0--0--0--0--0--0--|
--------------------------|--------------------------|-------------------------|
--------------------------|--------------------------|-------------------------|



--------------------------|--------------------------|
--0--0--0--0--0--0--0--0--|--2--2--2--2--2--2--2--2--|
--------------------------|--------------------------|
--------------------------|--------------------------|



--------------------------|--------------------------|
--2--2--2--2--2--2--2--2--|--2--2--2--2--2--2--2--2--|
--------------------------|--------------------------|
--------------------------|--------------------------|



--------------------------|--------------------------|
--2--2--2--2--2--2--2--2--|--2--2--2--2--2--2--2--2--|
--------------------------|--------------------------|
--------------------------|--------------------------|



--------------------------|--------------------------|
--2--2--2--2--2--2--2--2--|--2--2--2--2--2--2--2--2--|
--------------------------|--------------------------|
--------------------------|--------------------------|



--------------------------|--------------------------|
--2--2--2--2--2--2--2--2--|--------------------------|
--------------------------|--------------------------|
--------------------------|--0--0--0--0--0--0--0--0--|



--------------------------|--------------------------|-----------------------|
--------------------------|--------------------------|--------------0--------|
--------------------------|--------------------------|-----------------------|
--0--0--0--0--0--0--0--0--|--0--0--0--0--0--0--0--0--|--0--0--0--0-----------|



--------------------------|--------------------------|
--------------------------|--------------------------|
--------------------------|--------------------------|
--0--0--0--0--0--0--0--0--|--0--0--0--0--0--0--0--0--|



--------------------------|-----------------------|--------------------------|
--------------------------|--------------0--------|--------------------------|
--------------------------|-----------------------|--------------------------|
--0--0--0--0--0--0--0--0--|--0--0--0--0-----------|--0--0--0--0--0--0--0--0--|



--------------------------|--------------------------|-----------------------|
--------------------------|--------------------------|--------------0--------|
--------------------------|--------------------------|-----------------------|
--0--0--0--0--0--0--0--0--|--0--0--0--0--0--0--0--0--|--0--0--0--0-----------|



--------------------------|--------------------------|
--------------------------|--------------------------|
--------------------------|--------------------------|
--0--0--0--0--0--0--0--0--|--0--0--0--0--0--0--0--0--|



--------------------------|-----------------------|--------------------------|
--------------------------|--------------0--------|--------------------------|
--------------------------|-----------------------|--------------------------|
--0--0--0--0--0--0--0--0--|--0--0--0--0-----------|--0--0--0--0--0--0--0--0--|



--------------------------|--------------------------|-----------------------|
--------------------------|--------------------------|--------------0--------|
--------------------------|--------------------------|-----------------------|
--0--0--0--0--0--0--0--0--|--0--0--0--0--0--0--0--0--|--0--0--0--0-----------|



--------------------------|--------------------------|
--------------------------|--------------------------|
--------------------------|--------------------------|
--0--0--0--0--0--0--0--0--|--0--0--0--0--0--0--0--0--|



--------------------------|-----------------------|--------------------------|
--------------------------|--------------0--------|--------------------------|
--------------------------|-----------------------|--------------------------|
--0--0--0--0--0--0--0--0--|--0--0--0--0-----------|--0--0--0--0--0--0--0--0--|



--------------------------|--------------------------|-----------------------|
--------------------------|--------------------------|--------------0--------|
--------------------------|--------------------------|-----------------------|
--0--0--0--0--0--0--0--0--|--0--0--0--0--0--0--0--0--|--0--0--0--0-----------|



--------------------------|--------------------------|
--------------------------|--------------------------|
--------------------------|--------------------------|
--0--0--0--0--0--0--0--0--|--0--0--0--0--0--0--0--0--|



--------------------------|-----------------------|--------------------------|
--------------------------|--------------0--------|--------------------------|
--------------------------|-----------------------|--------------------------|
--0--0--0--0--0--0--0--0--|--0--0--0--0-----------|--0--0--0--0--0--0--0--0--|



--------------------------|--------------------------|-----------------------|
--------------------------|--------------------------|--------------0--------|
--------------------------|--------------------------|-----------------------|
--0--0--0--0--0--0--0--0--|--0--0--0--0--0--0--0--0--|--0--0--0--0-----------|



--------------------------|--------------------------|
--------------------------|--------------------------|
--------------------------|--------------------------|
--0--0--0--0--0--0--0--0--|--0--0--0--0--0--0--0--0--|



--------------------------|-----------------------|--------------------------|
--------------------------|--------------0--------|--------------------------|
--------------------------|-----------------------|--------------------------|
--0--0--0--0--0--0--0--0--|--0--0--0--0-----------|--0--0--0--0--0--0--0--0--|



--------------------------|--------------------------|-----------------------|
--------------------------|--------------------------|--------------0--------|
--------------------------|--------------------------|-----------------------|
--0--0--0--0--0--0--0--0--|--0--0--0--0--0--0--0--0--|--0--0--0--0-----------|



--------------------------|--------------------------|
--------------------------|--------------------------|
--------------------------|--------------------------|
--0--0--0--0--0--0--0--0--|--0--0--0--0--0--0--0--0--|
  development and support by
dmitry ivanov