rock
 
|tablatures   |lyrics   |discussion forums   |more tabs @ XGuitar.com

Helloween tabs

Savage guitar tab

//// HELLOWEEN ////
/// DR.STEIN  ///
// SAVAGE    //

Intro

Savage!   E|--------------------------------------------------------------|
          B|--------------------------------------------------------------|
          G|--------------------------------------------------------------|
          D|---------2----------------4--5----------2-------7-6-4---------|
          A|---------0-4-2-4----------2--3----------0-4-2-4-5-4-2-------2-|
          e|-2-22-22---2-0-2--2-22-22-------2-22-22---2-0-2-------5-4-2-0-|
          P.M[_____]          [_____]       [_____]               [___]

Verse 1

  You hear the people talking you walk the wrong street
  Painting all things black and step on your feet
  "Flabby stomach, styled hair"trousers full of air
  Their morality is real ours isn't there

E|--------------------------------------------------------------|
B|--------------------------------------------------------------|
G|--------------------------------------------------------------|  2x
D|---------------------------4-5----------------------------4-5-|
A|---------------------------2-3--2-22-2-22-2-22-2-22-22-22-2-3-|
e|-2-22-2-22-2-22-2-22-22-22------------------------------------|
P.M[_______________________]     -[_______________________]

Bridge

  They don't know, no they can't see
  Our hearts close to the sun
  Different in our hearts filled
  That faith we carry on

E|---------------------------------------|
B|---------------------------------------|
G|---------------------------------------|
D|------2----7-----9---------2----7----6-|
A|-4----0----5-----7----4----0----5----4-|
e|-2--------------------2----------------|

Chorus

  They just call us savage
  That's what I like to be
  Let them call us savage
  'Cause that's what we like to be

E|--------------------|------------------------------------------------
B|--------------------|------------------------------------------------
G|--------------------|------------------------------------------------
D|---7----6----4----2-|---------2----------------4--5----------2-------
A|-5----4----2----0---|---------0-4-2-4----------2--3----------0-4-2-4-
e|--------------------|-2-22-22---2-0-2--2-22-22-------2-22-22---2-0-2-

E -----------| Now, go back to   E|-------------------------|
B -----------| the beginning of  B|-------------------------|
G -----------| Chorus, but this  G|-------------------------|
D ---------4-| time, add this at D|-5-4-5-4-5-4-5-4-5-4-2---|
A ---------2-| the end---->      A|-3-2-3-2-3-2-3-2-3-2-0-4-|
e -2-22-22---|                   e|-----------------------2-|

Verse 2 (with the same riff)

  See the people wonder we run in our direction
  Let the narrow-minded sleep we better do some action
  Across the universe you smell the smell of lies
  I'm trying to be the winner not the sacrifice

Play bridge and chorus same as before, then, theres some loose e-humming

Verse 2

  See them run they know no fun
  And look what they have done
  In this world full of rules
  We just look like fools

Riff A
                               1st 2nd
E|-----------------------------|---|---|
B|-----------------------------|---|---|
G|-----------------------------|---|---|
D|-----------------------------|-4-|-2-|
A|-----------------------------|-2-|-0-|
e|-3-0-2-0-1-0-1-2--3-0-2-0-10-|---|---|
P.M[_________________________]

Verse 3

  I know what they think
  When i see them looking at me (savage)

E|-------------------------|
B|-------------------------|
G|-------------------------|
D|-5-----5-----7-----7-----|
A|-3-3-3-3-3-3-5-5-5-5-5-5-|
e|-------------------------|
P.M  [_]   [_]   [_]   [_]

Play Riff A 2x with theese lyrics:

  We come closer everyday to the time table life
  So smart they start their backwards fight

Play Verse 3

Play the first part of Riff A and then continue to;

Verse 4

  One day they will drop the bomb
  'Cause it's necessary to show the power
  One day they will give a shit on what you say

E|---------------------------------------------------
B|---------------------------------------------------
G|-5-----5-------------------------------------------
D|-3-3-3-3-3-3---------------------------------------
A|-------------5-----5-----7-----7-5/7-7-----7-5-7-9-
e|-------------3-3-3-3-3-3-5-5-5-5-3/5-5-5-5-5-3-5-7-
  P.M[_]   [_]   [_]   [_]   [_]         [_]

E -----------------------------------|
B -----------------------------------|
G -5-----5---------------------------|
D -3-3-3-3-3-3-----------------------|
A -------------5-----5----9999999999-|
e -------------3-3-3-3-33-7777777777-|

Play Intro all over again and then verse 1 with solo, then bridge, 
and chorus twice

End on:::::

E|------|
B|------|
G|------|
D|-2----|
A|-0--4-|
e|----2-|

savage...



Jolly good guitar playing

                                       by:Axel hallingbäck
                                    mailto:oedward@hotmail.com

  development and support by
dmitry ivanov