rock
 
|tablatures   |lyrics   |discussion forums   |more tabs @ XGuitar.com

Helloween tabs

Rise And Fall bass tab

its a 4 string

E||------------------|------------------|------------------|------------------|
B||------------------|------------------|------------------|------------------|
G||------------------|------------------|------------------|------------------|
D||------------------|------------------|------------------|------------------|
A||------------------|------------------|------------------|------------------|
E||------------------|------------------|------------------|------------------|



------------------|------------------|-------------------------|
------------------|------------------|-------------------------|
------------------|------------------|-------------------------|
------------------|------------------|-------------------------|
------------------|------------------|--0--------------0-0-----|
------------------|------------------|-------------0-0-----0-0-|



-------------------------|-------------------------|-------------------------|
-------------------------|-------------------------|-------------------------|
-------------------------|-------------------------|-------------------------|
-------------------------|-------------------------|-------------------------|
-------------------------|--0--------------0-0-----|-------------------------|
--2----------0-0-2-2-0-0-|-------------0-0-----0-0-|--2----------0-0-2-2-0-0-|



-------------------------------|-------------------------------|
-------------------------------|-------------------------------|
-------------------------------|-------------------------------|
-------------------------------|-------------------------------|
--0--0-0-0--0-0-0------0-0-----|-------------------------------|
-------------------0-0-----0-0-|--2--2-2-2--2-2-2--0-0-2-2-0-0-|



-------------------------------|-------------------------------|
-------------------------------|-------------------------------|
-------------------------------|-------------------------------|
-------------------------------|-------------------------------|
--0--0-0-0--0-0-0------0-0-----|-------------------------------|
-------------------0-0-----0-0-|--2--2-2-2--2-2-2--0-0-2-2-0-0-|



-----------------------|----------------------|------------------------|
-----------------------|----------------------|------------------------|
-----------------------|----------------------|------------------------|
-----------------------|--0----0----0----0----|------------------------|
--0----0----0----0--4--|----------------------|--4----4----4--4--4--4--|
-----------------------|----------------------|------------------------|



------------------------|-----------------------|-----------------------|
------------------------|-----------------------|-----------------------|
------------------------|-----------------------|-----------------------|
------------------------|--0----0----0----0-----|-----------------------|
------------0--------4--|--------------------4--|--2----2----2----2--2--|
--2----2-------4--2-----|-----------------------|-----------------------|



------------------------|------------------------|----------------------|
------------------------|------------------------|----------------------|
------------------------|------------------------|----------------------|
------------------------|------------------------|----------------------|
--4----4----4--2--0-----|------------------0-----|--0----0----0----0----|
---------------------4--|--2----2----2--0-----4--|----------------------|



----------------------|------------------------|------------------------|
----------------------|------------------------|------------------------|
----------------------|------------------------|------------------------|
--0----0----0----0----|------------------------|------------------------|
----------------------|--4----4----4--2--0-----|------------0--------4--|
----------------------|---------------------4--|--2----2-------4--2-----|



------------------------|-----------------------|------------------------|
------------------------|-----------------------|------------------------|
------------------------|-----------------------|------------------------|
--0----0----0-----0-----|-----------------------|------------------------|
---------------0-----4--|--2----2----2----2--2--|--4----4----4--2--0-----|
------------------------|-----------------------|---------------------4--|



------------------------|--------------------|--------------------|
------------------------|--------------------|--------------------|
------------------------|--------------------|--------------------|
------------------------|--------------------|--0-----------------|
------------0-----------|--0------------4----|---------------4----|
--2----2-------4--2--0--|--------------------|--------------------|



--------------------|--------------------|--------------------|
--------------------|--------------------|--------------------|
--------------------|--------------------|--------------------|
--------------------|-----------2--------|--------------------|
--2------------3----|--4-----------------|--0------------4----|
--------------------|--------------------|--------------------|



--------------------|--------------------|--------------------|
--------------------|--------------------|--------------------|
--------------------|--------------------|--------------------|
--0-----------------|--------------------|--------------------|
---------------4----|--2------------3----|--4-----------------|
--------------------|--------------------|-----------0--------|



--------------------------|--------------------------|
--------------------------|--------------------------|
--------2--1--------------|--------------------------|
--------------4--2--0-----|--------------------------|
--0--4-----------------4--|-----4-----4-----4-----4--|
--------------------------|--2-----2-----2-----2-----|



--------------------------|--------------------------|
--------------------------|--------------------------|
--------7--6--4--2--1-----|-----4-----4-----4-----4--|
--0--4-----------------4--|--2-----2-----3-----3-----|
--------------------------|--------------------------|
--------------------------|--------------------------|



--------------------------|--------------------------|
--------------------------|--------------------------|
-----6--7--6--4--2--1--2--|-----2--4--2--1-----------|
--4-----------------------|--0--------------4--2--4--|
--------------------------|--------------------------|
--------------------------|--------------------------|



--------------------------|-----------------------|
--------------------------|-----------------------|
--1--2--4--6--4--2--1--2--|-----1-----1-----------|
--------------------------|-----------------------|
--------------------------|--4-----4--------------|
--------------------------|--------------0--------|



-------------------------------|-------------------------------|
-------------------------------|-------------------------------|
-------------------------------|-------------------------------|
-------------------------------|-------------------------------|
--0--0-0-0--0-0-0------0-0-----|-------------------------------|
-------------------0-0-----0-0-|--2--2-2-2--2-2-2--0-0-2-2-0-0-|



-------------------------------|-------------------------------|
-------------------------------|-------------------------------|
-------------------------------|-------------------------------|
-------------------------------|-------------------------------|
--0--0-0-0--0-0-0------0-0-----|-------------------------------|
-------------------0-0-----0-0-|--2--2-2-2--2-2-2--0-0-2-2-0-0-|



-----------------------|----------------------|------------------------|
-----------------------|----------------------|------------------------|
-----------------------|----------------------|------------------------|
-----------------------|--0----0----0----0----|------------------------|
--0----0----0----0--4--|----------------------|--4----4----4--4--4--4--|
-----------------------|----------------------|------------------------|



------------------------|------------------------|-----------------------|
------------------------|------------------------|-----------------------|
------------------------|------------------------|-----------------------|
------------------------|--0----0----0-----0-----|-----------------------|
------------0--------4--|---------------0-----4--|--2----2----2----2--4--|
--2----2-------4--2-----|------------------------|-----------------------|



------------------------|------------------------|----------------------|
------------------------|------------------------|----------------------|
------------------------|------------------------|----------------------|
------------------------|------------------------|----------------------|
--4----4----4--2--0-----|------------------0-----|--0----0----0----0----|
---------------------4--|--2----2----2--0-----4--|----------------------|



------------------------|------------------------|------------------------|
------------------------|------------------------|------------------------|
------------------------|------------------------|------------------------|
--0----0----0-----0--0--|------------------------|------------------------|
---------------0--------|--4----4----4--2--0-----|------------0--------4--|
------------------------|---------------------4--|--2----2-------4--2-----|



------------------------|-----------------------|------------------------|
------------------------|-----------------------|------------------------|
------------------------|-----------------------|------------------------|
--0----0----0-----0-----|-----------------------|------------------------|
---------------0-----4--|--2----2----2----2--2--|--4----4----4--2--0-----|
------------------------|-----------------------|---------------------4--|



------------------------|--------------------------|--------------------------|
------------------------|--------------------------|--------------------------|
------------------------|--------------------------|--------------------------|
------------------------|--------------------------|--0--0--0--0--0--0--------|
------------0-----------|--0--0--0--0--0--0--4--4--|--------------------4--4--|
--2----2-------4--2--0--|--------------------------|--------------------------|



--------------------------|------------------------|--------------------------|
--------------------------|------------------------|--------------------------|
--------------------------|------------------------|--------------------------|
--------------------------|--------------2---------|--------------------------|
--2--2--2--2--2--2--3--3--|--4--4--4--4------------|--0--0--0--0--0--0--4--4--|
--------------------------|-------------------0----|--------------------------|



--------------------------|--------------------------|------------------------|
--------------------------|--------------------------|------------------------|
--------------------------|--------------------------|------------------------|
--0--0--0--0--0--0--------|--------------------------|--------------2---------|
--------------------4--4--|--2--2--2--2--2--2--3--3--|--4--4--4--4------------|
--------------------------|--------------------------|-------------------0----|



--------------------------|--------------------------|
--------------------------|--------------------------|
--------2--1--------------|--------------------------|
--------------4--2--0-----|--------------------------|
--0--4-----------------4--|-----4-----4-----4-----4--|
--------------------------|--2-----2-----2-----2-----|



--------------------------|--------------------------|
--------------------------|--------------------------|
--------7--6--4--2--1-----|-----4-----4-----4-----4--|
--0--4-----------------4--|--2-----2-----3-----3-----|
--------------------------|--------------------------|
--------------------------|--------------------------|



--------------------------|--------------------------|
--------------------------|--------------------------|
-----6--7--6--4--2--1--2--|-----2--4--2--1-----------|
--4-----------------------|--0--------------4--2--4--|
--------------------------|--------------------------|
--------------------------|--------------------------|



--------------------------|-----------------------|-------------------|
--------------------------|-----------------------|-------------------|
--1--2--4--6--4--2--1--2--|-----1-----1-----------|-------------------|
--------------------------|-----------------------|-------------------|
--------------------------|--4-----4--------------|--0----------------|
--------------------------|--------------0--------|-------------------|



-------------------|----------------------------------|
-------------------|----------------------------------|
-------------------|----------------------------------|
--0----------------|------------------0-0-0-0-0-0-0-0-|
-------------------|--0-0-0-0-0-0-0-0-----------------|
-------------------|----------------------------------|



----------------------------------|----------------------------------|
----------------------------------|----------------------------------|
----------------------------------|----------------------------------|
----------------------------------|--0-0-0-0-0-0-0-0-----------------|
--4-4-4-4-4-4-4-4-----------------|------------------2-2-2-2-2-2-2-2-|
------------------2-2-2-2-2-2-2-2-|----------------------------------|



----------------------------------|------------------|
----------------------------------|------------------|
----------------------------------|------------------|
------------------4-4-0-0---------|------------------|
--4-4-4-4-4-4-4-4---------4-4-2-2-|--0-0-------------|
----------------------------------|------4-4-2-2-0-0-|



----------------------------------|----------------------------------|
----------------------------------|----------------------------------|
----------------------------------|----------------------------------|
----------------------------------|------------------0-0-0-0-0-0-0-0-|
--0-0-0-0-------------------------|----------------------------------|
----------4-4-4-4-2-2-2-2-2-2-2-2-|--2-2-2-2-0-0-0-0-----------------|



----------------------------------|----------------------------------|
----------------------------------|----------------------------------|
----------------------------------|----------------------------------|
--0-0-0-0-------------------------|----------------------------------|
----------4-4-4-4-2-2-2-2-2-2-2-2-|--4-4-4-4---------0-0-0-0-0-0-0-0-|
----------------------------------|----------0-0-0-0-----------------|



----------------------------------|----------------------------------|
----------------------------------|----------------------------------|
----------------------------------|----------------------------------|
----------------------------------|------------------0-0-0-0-0-0-0-0-|
--0-0-0-0-------------------------|----------------------------------|
----------4-4-4-4-2-2-2-2-2-2-2-2-|--2-2-2-2-0-0-0-0-----------------|



----------------------------------|----------------------------------|
----------------------------------|----------------------------------|
----------------------------------|----------------------------------|
--0-0-0-0-------------------------|----------------------------------|
----------4-4-4-4-2-2-2-2-2-2-2-2-|--4-4-4-4---------0-0-0-0-0-0-0-0-|
----------------------------------|----------0-0-0-0-----------------|



----------------------------------|----------------------------------|
----------------------------------|----------------------------------|
----------------------------------|----------------------------------|
----------------------------------|------------------0-0-0-0-0-0-0-0-|
--0-0-0-0-------------------------|----------------------------------|
----------4-4-4-4-2-2-2-2-2-2-2-2-|--2-2-2-2-0-0-0-0-----------------|



----------------------------------|----------------------------------|
----------------------------------|----------------------------------|
----------------------------------|----------------------------------|
--0-0-0-0-------------------------|----------------------------------|
----------4-4-4-4-2-2-2-2-2-2-2-2-|--4-4-4-4---------0-0-0-0-0-0-0-0-|
----------------------------------|----------0-0-0-0-----------------|



----------------------------------|----------------------------------|
----------------------------------|----------------------------------|
----------------------------------|----------------------------------|
----------------------------------|------------------0-0-0-0-0-0-0-0-|
--0-0-0-0-------------------------|----------------------------------|
----------4-4-4-4-2-2-2-2-2-2-2-2-|--2-2-2-2-0-0-0-0-----------------|



----------------------------------|---------------------------|
----------------------------------|---------------------------|
----------------------------------|---------------------------|
--0-0-0-0-------------------------|---------------------------|
----------4-4-4-4-2-2-2-2-2-2-2-2-|--4-4-4-4---------0--------|
----------------------------------|----------0-0-0-0----------|



------------------|---------------------|------------------------|
------------------|---------------------|------------------------|
------------------|---------------------|------------------------|
------------------|---------------------|--------0--2------------|
------------------|------------0-----0--|--2--4--------0----0----|
------------------|---------------4-----|------------------------|



-----------------------|----------------------|------------------------|
-----------------------|----------------------|------------------------|
-----------------------|----------------------|------------------------|
-------------0----0----|--0----0--------------|------------------------|
--0----0--4------------|------------4----4----|--4--4--4--4------------|
-----------------------|----------------------|--------------2----2----|



------------------------|-----------------------|-----------------------|
------------------------|-----------------------|-----------------------|
------------------------|-----------------------|-----------------------|
--------------0----0----|--0----0---------------|-----------------------|
--0--------4------------|----------4--2----2----|--2----2--2--4----4----|
-----4--2---------------|-----------------------|-----------------------|



------------------------|------------------------|----------------------|
------------------------|------------------------|----------------------|
------------------------|------------------------|----------------------|
------------------------|------------------------|------------0----0----|
--4--2--0---------------|--------0-----0----0----|--0----0--------------|
-----------4--2----2----|--2--0-----4------------|----------------------|



----------------------|------------------------|------------------------|
----------------------|------------------------|------------------------|
----------------------|------------------------|------------------------|
--0----0--------------|------------------------|--------------0----0----|
------------4----4----|--4--2--0---------------|--0--------4------------|
----------------------|-----------4--2----2----|-----4--2---------------|



------------------------|-----------------------|------------------------|
------------------------|-----------------------|------------------------|
------------------------|-----------------------|------------------------|
--0-----0---------------|-----------------------|------------------------|
-----0-----4--2----2----|--2----2--2--4----4----|--4--2--0---------------|
------------------------|-----------------------|-----------4--2----2----|



-----------------------|--------------------|--------------------|
-----------------------|--------------------|--------------------|
-----------------------|--------------------|--------------------|
-----------------------|-----------0--------|--------------------|
--0-----------0--------|------4-------------|------4----2--------|
-----4--2--0-----------|--------------------|--------------------|



--------------------|--------------------|--------------------|
--------------------|--------------------|--------------------|
--------------------|--------------------|--------------------|
--------------------|--2-----------------|-----------0--------|
------3----4--------|-----------0--------|------4-------------|
--------------------|--------------------|--------------------|



--------------------|--------------------|-----------------------|
--------------------|--------------------|-----------------------|
--------------------|--------------------|-----------------2--1--|
--------------------|--------------------|-----------------------|
------4----2--------|------3----4--------|-----------0--4--------|
--------------------|--------------------|--0--------------------|



--------------------------|--------------------------|
--------------------------|--------------------------|
--------------------------|--------------------7--6--|
--4--2--0-----------------|--------------0--4--------|
-----------4-----4-----4--|-----4-----4--------------|
--------------2-----2-----|--2-----2-----------------|



--------------------------|--------------------------|
--------------------------|--------------------------|
--4--2--1--------4-----4--|-----4-----4-----6--7--6--|
-----------4--2-----2-----|--3-----3-----4-----------|
--------------------------|--------------------------|
--------------------------|--------------------------|



--------------------------|--------------------------|-----------------------|
--------------------------|--------------------------|-----------------------|
--4--2--1--2-----2--4--2--|--1-----------1--2--4--6--|--4--2--1--2-----------|
--------------0-----------|-----4--2--4--------------|-----------------------|
--------------------------|--------------------------|--------------4--------|
--------------------------|--------------------------|-----------------------|



-----------------------|--------------------------|--------------------------|
-----------------------|--------------------------|--------------------------|
-----------------2--1--|--------------------------|--------------------7--6--|
-----------------------|--4--2--0-----------------|-----------------4--------|
-----------0--4--------|-----------4-----4-----4--|-----4-----4--5-----------|
--0--------------------|--------------2-----2-----|--2-----2-----------------|



--------------------------|--------------------------|
--------------------------|--------------------------|
--4--2--1--------4-----4--|-----4-----4-----6--7--6--|
-----------4--2-----2-----|--3-----3-----4-----------|
--------------------------|--------------------------|
--------------------------|--------------------------|



--------------------------|--------------------------|
--------------------------|--------------------------|
--4--2--1--2-----2--4--2--|--1-----------1--2--4--6--|
--------------0-----------|-----4--2--4--------------|
--------------------------|--------------------------|
--------------------------|--------------------------|



--------------------------|-------------------------|
--------------------------|-------------------------|
--4--2--1--2-----1-----1--|-------------------------|
--------------------------|-------------------------|
--------------4-----4-----|-----------0--0-0-0--0-0-|
--------------------------|--0----------------------|



-------------------------------|-------------------------------|
-------------------------------|-------------------------------|
-------------------------------|-------------------------------|
-------------------------------|-------------------------------|
--0------0-0-------------------|-----------------0--0-0-0--0-0-|
-----0-0-----0-0-2--2-2-2--2-2-|--2--0-0-2-2-0-0---------------|



-------------------------------|---------------------------------|
-------------------------------|---------------------------------|
-------------------------------|---------------------------------|
-------------------------------|---------------------------------|
--0------0-0-------------------|-----------------0-0-0-0-0-0-0-0-|
-----0-0-----0-0-2--2-2-2--2-2-|--2--0-0-2-2-0-0-----------------|
  development and support by
dmitry ivanov