rock
 
|tablatures   |lyrics   |discussion forums   |more tabs @ XGuitar.com

Helloween tabs

Pink Bubbles Go Ape guitar tab

                    Pink Bubbles Go Ape

tabbed by Landis Bender
landis_bender@yahoo.com

                                                            
E-------|--------------------------------|------------------
B-------|--------------------------------|------------------
G---4:--|-----------9-----9-----9-----9--|------------------
D---4:--|-----------9-----9-----9-----9--|------------------
A-------|--------7-----------7-----------|------------------
E-------|--------------7-----------7-----|------------------
                                                            

    Some people are much to smart                           
E-----------------------------------------------------------
B-----------------------------------------------------------
G------9--------------------9--------------------9----------
D------9--------------------9--------------------9----------
A---7-----------------------------------------7-------------
E------------------------7----------------------------------
                                                            

                                                            
E------------------|----------------------------------------
B------------------|----------------------------------------
G---------------9--|----------------------------------------
D---------------9--|----------------------------------------
A------------------|----------------------------------------
E------------7-----|----------------------------------------
                                                            

    They know everything before it starts                   
E-----------------------------------------------------------
B-----------------------------------------------------------
G---------------------8--------------------8----------------
D---------------------9--------------------9----------------
A---------------9-------------------------------------------
E------------------------------------7----------------------
                                                            

                                                            
E------------------------------|----------------------------
B------------------------------|----------------------------
G---------8-----------------8--|----------------------------
D---------9-----------------9--|----------------------------
A---9-----------------7--------|----------------------------
E------------------------------|----------------------------
                                                            

    Eating wisdom with the pail                             
E-----------------------------------------------------------
B-----------------------------------------------------------
G---------9--------------9--------------9--------------9----
D---------9--------------9--------------9--------------9----
A---7-----------------------------7-------------------------
E------------------7-----------------------------7----------
                                                            

                                                            
E---|-------------------------------------------------------
B---|-------------------------------------------------------
G---|-------------------------------------------------------
D---|-------------------------------------------------------
A---|-------------------------------------------------------
E---|-------------------------------------------------------
                                                            

    No wonder when it sticks                                
E-----------------------------------------------------------
B-----------------------------------------------------------
G------------------8-----------8----------------------------
D------------------9-----------9----------------------------
A------------9-----------------------------7----------------
E------------------------7----------------------------------
                                                            

                                                            
E---------------|-------------------------------------------
B---------------|-------------------------------------------
G------9-----9--|-------------------------------------------
D------9-----9--|-------------------------------------------
A---------------|-------------------------------------------
E---------------|-------------------------------------------
                                                            

    In your darkest hour                                    
E---7-------------------------------------------------------
B---7-------------------------------------------------------
G---8-------------------------------------------------------
D---9-------------------------------------------------------
A---9-------------------------------------------------------
E---7-------------------------------------------------------
                                                            

             I will sing this song for you                  
E------------------------------2----------------------------
B------------------------------2----------------------------
G------------------------------3----------------------------
D------------------------------4----------------------------
A------------------------------4----------------------------
E------------------------------2----------------------------
                                                            

                                                            
E------------------------------7-----|----------------------
B------------------------------7-----|----------------------
G------------------------------8-----|----------------------
D------------------------------9-----|----------------------
A------------------------------9-----|----------------------
E------------------------------7-----|----------------------
                                                            

                                                            
E-----------------------------------------------------------
B-----------------------------------------------------------
G-----------------------------------------------------------
D-----------------------------------------------------------
A-----------------------------------------------------------
E---------7-----5-----4-----2-------------------------------
                                                            

    Cry and tell and slander yell and                       
E---0--------------------------------------------------7----
B---0--------------------------------------------------7----
G---1--------------------------------------------------8----
D---2--------------------------------------------------9----
A---2--------------------------------------------------9----
E---0--------------------------------------------------7----
                                                            
    Grumble well so loud for heaven's sake                  
E---5-------------------------------------------------------
B---5-------------------------------------------------------
G---6-------------------------------------------------------
D---7-------------------------------------------------------
A---7-------------------------------------------------------
E---5-------------------------------------------------------
                                                            

                                                            
E---2-------------------------------------------------------
B---2-------------------------------------------------------
G---3-------------------------------------------------------
D---4-------------------------------------------------------
A---4-------------------------------------------------------
E---2-------------------------------------------------------
                                                            

                                                            
E---7--------|----------------------------------------------
B---7--------|----------------------------------------------
G---8--------|----------------------------------------------
D---9--------|----------------------------------------------
A---9--------|----------------------------------------------
E---7--------|----------------------------------------------
                                                            
                                                            

             Pink bubbles go ape                            
E-----------------------------------------------------------
B-----------------------------------------------------------
G-----------------------------------------------------------
D-----------------------------------------------------------
A-----------------------------------------------------------
E-----------------------------------------------------------
                                                            

                                                            
E---------------------|-------------------------------------
B---------------------|--9----------------------------------
G---------------------|--9----------------------------------
D---------------------|--9----------------------------------
A---------------------|--7----------------------------------
E---------------------|--7----------------------------------
                                                            



============================================================
==      Created with a demo version of BUCKET O' TAB      ==
==        tablature creation software for Windows         ==
==             http://www.his.com/~gse/bucket             ==
============================================================


  development and support by
dmitry ivanov