rock
 
|tablatures   |lyrics   |discussion forums   |more tabs @ XGuitar.com

Helloween tabs

Lavdate Dominvm bass tab

tune down

F#||------------------|------------------|------------------|------------------|
C#||------------------|------------------|------------------|------------------|
G#||------------------|------------------|------------------|------------------|
D#||------------------|------------------|------------------|------------------|



----------------------------------|----------------------------------|
----------------------------------|----------------------------------|
--5-5-5-5-5-5-5-5-5-5-5-5-5-5-5-5-|--5-5-5-5-5-5-5-5-0-0-0-0-0-0-0-0-|
----------------------------------|----------------------------------|



----------------------------------|----------------------------------|
----------------------------------|----------------------------------|
--5-5-5-5-5-5-5-5-5-5-5-5-5-5-5-5-|--0-0-0-0-5-5-5-5-0-0-0-0-0-0-0-0-|
----------------------------------|----------------------------------|



----------------------------------|----------------------------------|
----------------------------------|----------------------------------|
--5-5-5-5-5-5-5-5-5-5-5-5-5-5-5-5-|--5-5-5-5-5-5-5-5-0-0-0-0-0-0-0-0-|
----------------------------------|----------------------------------|



----------------------------------|----------------------------------|
----------------------------------|----------------------------------|
--5-5-5-5-5-5-5-5-5-5-5-5-5-5-5-5-|--0-0-0-0-5-5-5-5-0-0-0-0-0-0-0-0-|
----------------------------------|----------------------------------|



--------------------------------|-------------------------------|
--3--------------------------3--|----------------------------3--|
-----5-5-5-5-5-5-5-5-5-5-5-5----|----5-5-5-5-5-5-5-5-5-5-5-5----|
--------------------------------|-------------------------------|



------------------------------|------------------------|
------------------------------|------------------------|
----5-5-5-5-5-5-5-5-5-5-0--0--|--3-------3-------1/-3--|
------------------------------|-----3-------1----------|



--------------------------------|-------------------------------|
--3--------------------------3--|----------------------------3--|
-----5-5-5-5-5-5-5-5-5-5-5-5----|----5-5-5-5-5-5-5-5-5-5-5-5----|
--------------------------------|-------------------------------|



------------------------------|----------------------|
------------------------------|----------------------|
----5-5-5-5-5-5-5-5-5-5-0--0--|------------1----3----|
------------------------------|--1------3------------|



--------------------------|--------------------------|
--------------------------|--------------------------|
--------------------------|--5--5--5--5--5--3--1--0--|
--1--1--1--1--1--1--1--1--|--------------------------|



--------------------------|--------------------|--------------------------|
--------------------------|--------------------|--------------------------|
--------------3--1--0-----|-------------3------|--------------------------|
--3--1--0--0-----------3--|--1-----------------|--1--1--1--1--1--1--1--0--|



--------------------------|--------------------------|
--------------------------|--------------------------|
--------------------------|--1--1--1--1--1--0--1--1--|
--3--3--3--3--3--3--3--3--|--------------------------|



--------------------------|--------------------------|
--------------------------|--3--2--0-----------------|
--3--3--3--3--3--3--1-----|-----------3--1--0--------|
-----------------------3--|--------------------3--1--|



--------------------------|--------------------------|
--------------------------|--------------5--3--2--0--|
-----3--5-----------0--3--|--1--0--------------------|
--0--------0--1--3--------|--------3--1--------------|



--------------------------|--------------------------|
-----0--------------------|--3--3--2--2--0--0--------|
--3-----1--3--------------|--------------------3--3--|
--------------1--1--1--1--|--------------------------|



--------------------------|--------------------------|
--------------------------|--------------------------|
--------3--3--1--1--------|--------------------0--0--|
--1--1--------------3--3--|--1--1--1--1--3--3--------|



--------------------------|--------------------------|
--------------------------|--3--2--0-----------------|
--3--3--3--3--3--3--3--3--|-----------3--1--0--------|
--------------------------|--------------------3--1--|



--------------------------|--------------------------|
--------------------------|--3--2--0-----------------|
-----3--5-----------0--3--|-----------3--1--0--------|
--0--------0--1--3--------|--------------------3--1--|



--------------------------|-----------2--------------|
--------------------------|--------------5--3--2--0--|
-----3--5-----------0--3--|--1--0--------------------|
--0--------0--1--3--------|--------3-----------------|



-----------------------5--|--------------------------|
-----0--------------3-----|--3--2--0-----------------|
--3-----1--3-----3--------|-----------3--1--0--------|
--------------1-----------|--------------------3--1--|



--------------------------|-----------2--------------|
--------------------------|--------------5--3--2--0--|
-----3--5-----------0--3--|--1--0--------------------|
--0--------0--1--3--------|--------3-----------------|



-----------------------5--|--------------------------------|
-----0--------------3-----|--3--------------------------3--|
--3-----1--3-----3--------|-----5-5-5-5-5-5-5-5-5-5-5-5----|
--------------1-----------|--------------------------------|



-------------------------------|------------------------------|
----------------------------3--|------------------------------|
----5-5-5-5-5-5-5-5-5-5-5-5----|----5-5-5-5-5-5-5-5-5-5-0--0--|
-------------------------------|------------------------------|



------------------------|--------------------------------|
------------------------|--3--------------------------3--|
--3-------3-------1/-3--|-----5-5-5-5-5-5-5-5-5-5-5-5----|
-----3-------1----------|--------------------------------|



-------------------------------|------------------------------|
----------------------------3--|------------------------------|
----5-5-5-5-5-5-5-5-5-5-5-5----|----5-5-5-5-5-5-5-5-5-5-0--0--|
-------------------------------|------------------------------|



----------------------|--------------------------|--------------------------|
----------------------|--------------------------|--------------------------|
------------1----3----|--------------------------|--5--5--5--5--5--3--1--0--|
--1------3------------|--1--1--1--1--1--1--1--1--|--------------------------|



--------------------------|--------------------|--------------------------|
--------------------------|--------------------|--------------------------|
--------------3--1--0-----|-------------3------|--------------------------|
--3--1--0--0-----------3--|--1-----------------|--1--1--1--1--1--1--1--0--|



--------------------------|--------------------------|
--------------------------|--------------------------|
--------------------------|--1--1--1--1--1--0--1--1--|
--3--3--3--3--3--3--3--3--|--------------------------|



--------------------------|--------------------------|
--------------------------|--3--2--0-----------------|
--3--3--3--3--3--3--1-----|-----------3--1--0--------|
-----------------------3--|--------------------3--1--|



--------------------------|--------------------------|
--------------------------|--------------5--3--2--0--|
-----3--5-----------0--3--|--1--0--------------------|
--0--------0--1--3--------|--------3--1--------------|



--------------------------|--------------------------|
-----0--------------------|--3--3--2--2--0--0--------|
--3-----1--3--------------|--------------------3--3--|
--------------1--1--1--1--|--------------------------|



--------------------------|--------------------------|
--------------------------|--------------------------|
--------3--3--1--1--------|--------------------0--0--|
--1--1--------------3--3--|--1--1--1--1--3--3--------|



--------------------------|--------------------------|
--------------------------|--3--2--0-----------------|
--3--3--3--3--3--3--3--3--|-----------3--1--0--------|
--------------------------|--------------------3--1--|



--------------------------|--------------------------|
--------------------------|--3--2--0-----------------|
-----3--5-----------0--3--|-----------3--1--0--------|
--0--------0--1--3--------|--------------------3--1--|



--------------------------|-----------2--------------|-----------------------|
--------------------------|--------------5--3--2--0--|-----0-----------------|
-----3--5-----------0--3--|--1--0--------------------|--3-----1--3-----------|
--0--------0--1--3--------|--------3-----------------|--------------1--------|



----------------------------------|----------------------------------|
----------------------------------|----------------------------------|
--5-5-5-5-5-5-5-5-5-5-5-5-5-5-5-5-|--5-5-5-5-5-5-5-5-0-0-0-0-0-0-0-0-|
----------------------------------|----------------------------------|



----------------------------------|----------------------------------|
----------------------------------|----------------------------------|
--5-5-5-5-5-5-5-5-5-5-5-5-5-5-5-5-|--0-0-0-0-5-5-5-5-0-0-0-0-0-0-0-0-|
----------------------------------|----------------------------------|



--------------------------------------------------|
--------------------------------------------------|
--5-5-5-5-5-5-5-5-5-5-5-5-7-7-7-7-7-7-7-7-7-7-7-7-|
--------------------------------------------------|



------------------------------------------|-------------------------------|
------------------------------------------|----------2-------------4------|
--------------------------5-5-5-5-5-5-5-5-|--2-2-2-2----2-2--4-4-4----4-4-|
--5-5-5-5-5-5-3-3-3-3-3-3-----------------|-------------------------------|



------------------------------|--------------------|
---------5--------------------|--------------------|
---5-5-5----5-5--7-7-7-7-7-7--|--5-----------------|
------------------------------|-----------7--------|



-------------------------------------------|----------------------------------|
-------------------------------------------|----------------------------------|
--7-7-7-7-7-7-7-7-7-7-7-7-5-5-5-5-5-5-7----|--5-5-5-5-5-5-5-5-5-5-5-5-5-5-5-5-|
-------------------------------------------|----------------------------------|



----------------------------------|----------------------------------|
----------------------------------|----------------------------------|
--7-7-7-7-7-7-7-7-7-7-7-7-7-7-7-7-|--9-9-9-9-9-9-9-9-9-9-9-9-9-9-9-9-|
----------------------------------|----------------------------------|



----------------------------------|----------------------------------|
--5-5-5-5-5-5-5-5-7-7-7-7-7-7-7-7-|----------------------------------|
----------------------------------|--5-5-5-5-5-5-5-5-5-5-5-5-5-5-5-5-|
----------------------------------|----------------------------------|



----------------------------------|----------------------------------|
----------------------------------|----------------------------------|
--7-7-7-7-7-7-7-7-7-7-7-7-7-7-7-7-|--9-9-9-9-9-9-9-9-9-9-9-9-9-9-9-9-|
----------------------------------|----------------------------------|



---------------------------------|--------------2-----------|
--5-5-5-5-5-5-5-5-7-7-7-7-7-7-7/-|--3--2--0--------5--3--2--|
---------------------------------|-----------3--------------|
---------------------------------|--------------------------|



--------------------2--5--|-----------2--------------|
--0-----0--2--3--5--------|--------------5--3--2--0--|
-----3--------------------|--1--0--------------------|
--------------------------|--------3-----------------|



--------------------------|----------------------------------|
-----0--------------------|----------------------------------|
--3-----1--3--------------|----------------------------------|
--------------1--1--1--1--|--1-1-1-1-1-1-1-1-1-1-1-1-1-1-1-1-|



----------------------------------|----------------------------------|
----------------------------------|----------------------------------|
--5-5-5-5-5-5-5-5-5-5-5-5-5-5-5-5-|------------------3-3-3-3-3-3-3-3-|
----------------------------------|--3-3-3-3-3-3-3-3-----------------|



----------------------------------|----------------------------------|
----------------------------------|----------------------------------|
----------------------------------|----------------------------------|
--1-1-1-1-1-1-1-1-1-1-1-1-1-1-1-1-|--1-1-1-1-1-1-1-1-1-1-1-1-1-1-1-1-|



----------------------------------|----------------------------------|
----------------------------------|----------------------------------|
----------------------------------|--1-1-1-1-1-1-1-1-1-1-1-1-1-1-1-1-|
--3-3-3-3-3-3-3-3-3-3-3-3-3-3-3-3-|----------------------------------|



------------------------------|----------------------------------|
------------------------------|----------------------------------|
--3-3-3-3-3-3-3-3-3--3--1-----|--5-5-5-5-5-5-5-5-5-5-5-5-5-5-5-5-|
---------------------------3--|----------------------------------|



----------------------------------|----------------------------------|
----------------------------------|----------------------------------|
--3-3-3-3-3-3-3-3-3-3-3-3-3-3-3-3-|----------------------------------|
----------------------------------|--1-1-1-1-1-1-1-1-1-1-1-1-1-1-1-1-|



---------------------------------|------------------|------------------|
---------------------------------|------------------|------------------|
------------------0-0-0-0-0-0-0--|------------------|------------------|
--3-3-3-3-3-3-3-3----------------|------------------|------------------|



----------------------------------|----------------------------------|
----------------------------------|----------------------------------|
--5-5-5-5-5-5-5-5-5-5-5-5-5-5-5-5-|--3-3-3-3-3-3-3-3-3-3-3-3-3-3-3-3-|
----------------------------------|----------------------------------|



----------------------------------|---------------------------------|
----------------------------------|---------------------------------|
----------------------------------|------------------0-0-0-0-0-0-0--|
--1-1-1-1-1-1-1-1-1-1-1-1-1-1-1-1-|--3-3-3-3-3-3-3-3----------------|



------------------|------------------|------------------|------------------|
------------------|------------------|------------------|------------------|
------------------|------------------|------------------|------------------|
------------------|------------------|------------------|------------------|



--------------------------------|------------------------------|
--------------------------2-----|------------------------------|
-----------------------------3--|--5-5-5-5-5-5-5-5-5--3--1--0--|
--1-1-1-1-1-1-1-1-1-1-1-1-------|------------------------------|



----------------------------|----------------------------|
----------------------------|----------------------------|
-------------1--3--1--0-----|---------------------3------|
--3-3-3-3-3--------------3--|--1-1-1-1-1-1-1-1-1---------|



------------------------------|----------------------------------|
------------------------------|----------------------------------|
------------------------------|----------------------------------|
--1-1-1-1-1-1-1-1-1--0--1--2--|--3-3-3-3-3-3-3-3-3-3-3-3-3-3-3-3-|



------------------------------|------------------------------|
------------------------------|------------------------------|
--1-1-1-1-1-1-1-1-1--0--1--2--|--3-3-3-3-3-3-3-3-3--3--1-----|
------------------------------|---------------------------3--|



--------------------------|--------------------------|
--3--2--0-----------------|--------------------------|
-----------3--1--0--------|-----3--5-----------0--3--|
--------------------3--1--|--0--------0--1--3--------|



--------------------------|--------------------------|
--------------5--3--2--0--|-----0--------------------|
--1--0--------------------|--3-----1--3--------------|
--------3--1--------------|--------------1--1--1--1--|



--------------------------|--------------------------|
--3--3--2--2--0--0--------|--------------------------|
--------------------3--3--|--------3--3--1--1--------|
--------------------------|--1--1--------------3--3--|



--------------------------|--------------------------|
--------------------------|--------------------------|
--------------------0--0--|--3--3--3--3--3--3--3--3--|
--1--1--1--1--3--3--------|--------------------------|



--------------------------|--------------------------|
--3--2--0-----------------|--------------------------|
-----------3--1--0--------|-----3--5-----------0--3--|
--------------------3--1--|--0--------0--1--3--------|



--------------------------|--------------------------|
--3--2--0-----------------|--------------------------|
-----------3--1--0--------|-----3--5-----------------|
--------------------3--1--|--0--------0--1--1--1--1--|



--------------------------|--------------------------|--------------------|
--------------------------|--------------------------|--------------------|
--5--5--5--5--------------|--3--3--------------------|--5-----------------|
--------------3--3--3--3--|--------3--3--1--1--1--1--|-----------3--------|



---------------------|--------------------|---------------------|
---------------------|--------------------|---------------------|
--3------------------|--5-----------------|--3------------------|
-------3----1--------|-----------3--------|-------3----1--------|



-------------------|-------------------|--------------------|
-------------------|-------------------|--------------------|
--5----------------|-------------------|--3-----------------|
-------------------|--3----------------|-----------3--------|



-------------------|------------------|-----------------------------------|
-------------------|------------------|-----------3-3-3-3-3-3-3-3-3-3-3-3-|
-------------------|------------------|-----------------------------------|
--1----------------|------------------|--1--------------------------------|



-----------------------------------|
--3-3-3-3-3-3-3-3-3-3-3-3-3--------|
-----------------------------------|
-----------------------------------|



--------------------------------------------------|
--7-7-7-7-7-7-7-7-7-7-7-7-7-7-7-7-7-7-7-7-7-7-7-7/|
--------------------------------------------------|
--------------------------------------------------|



--------------------------------------------------------------------------|
--10-10-10-10-10-10-10-10-10-10-10-10-10-10-10-10-10-10-10-10-10-10-10-10/|
--------------------------------------------------------------------------|
--------------------------------------------------------------------------|



--------------------------------------------------|
--7-7-7-7-7-7-7-7-7-7-7-7-7-7-7-7-7-7-7-7-7-7-7-7/|
--------------------------------------------------|
--------------------------------------------------|



--------------------------------------------------|
--3-3-3-3-3-3-3-3-3-3-3-3-3-3-3-3-3-3-3-3-3-3-3-3-|
--------------------------------------------------|
--------------------------------------------------|



--------------------------------------------------|
--------------------------------------------------|
--------------------------------------------------|
--1-1-1-1-1-1-1-1-1-1-1-1-1-1-1-1-1-1-1-1-1-1-1-1-|



-----------------------------------|-------------------||
-----------------------------------|-------------------||
-----------------------------------|-------------------||
--1-1-1-1-1-1-1-1-1-1-1-1-1--------|--1/---------------||
  development and support by
dmitry ivanov