rock
 
|tablatures   |lyrics   |discussion forums   |more tabs @ XGuitar.com

Helloween tabs

Kings Will Be Kings bass tab

tune down

F#||------|------|------|------|------|------|------|------|------|------|
C#||------|------|------|------|------|------|------|------|------|------|
G#||------|------|------|------|------|------|------|------|------|------|
D#||------|------|------|------|------|------|------|------|------|------|



------|------|------|------|------|----------------------|
------|------|------|------|------|----------7--5--4-----|
------|------|------|------|------|-------------------5--|
------|------|------|------|------|----------------------|



----------------------------------|--------------------------|
----------------------------------|--------------------------|
----------------------------------|-----5--7--5--3--5--3-----|
--0-0-0-0-0-0-0-0-3-3-3-3-2-2-2-2-|--0--------------------5--|



----------------------------------|----------------------------------|----|----|
----------------------------------|----------------------------------|----|----|
----------------------------------|----------------------------------|----|----|
--0-0-0-0-0-0-0-0-3-3-3-3-7-7-7-7-|--5-5-5-5-5-5-5-5-5-5-5-5-5-5-5-5-|----|----|



----|----|----|----||----------------------------|---------------------------|
----|----|----|----||*---------------------------|-----9--10--7--9--5--7--5--|
----|----|----|----||*---------------------------|---------------------------|
----|----|----|----||---0--0-2-3--2--0--7--8--5--|--0------------------------|



---------------------------|---------------------------------|
---------------------------|-----9--10--7--10-12-10-9-10--7--|
---------------------------|---------------------------------|
--0--0-2-3--2--0--7--8--5--|--0------------------------------|



---------------7------------|---------------------7--9--|
-----9--10--------10--9--7--|--9--10--7--5--2--5--------|
----------------------------|---------------------------|
--8---------8---------------|---------------------------|



------------------------|------------------------|---------------------------|
---------------9--10----|-----3--4-------7--9----|---------------------------|
------10----7-----------|--5----------7----------|---------------------------|
------------------------|------------------------|--0--0-2-3--2--0--7--8--5--|



---------------------------|---------------------------|
-----9--10--7--9--5--7--5--|---------------------------|
---------------------------|---------------------------|
--0------------------------|--0--0-2-3--2--0--7--8--5--|



---------------------------------|---------------7------------|
-----9--10--7--10-12-10-9-10--7--|-----9--10--------10--9--7--|
---------------------------------|----------------------------|
--0------------------------------|--8---------8---------------|



---------------------7--9--|---------------------------|
--9--10--7--5--2--5--------|------------------9--10----|
---------------------------|--7--9--10----10-----------|
---------------------------|---------------------------|



------------------------|----------------------------------|
-----3--4-------7--9----|--------------------------7-7-7-7-|
--5----------7----------|--5-5-5-5-7-7-7-7-9-9-9-9---------|
------------------------|----------------------------------|



--------------------------------------|----------------------------------|
------------------------------9-9-9-9-|----------------------------------|
--7-7-7-7-9-9-9-9-10-10-10-10---------|--------------------------7-7-7-7-|
--------------------------------------|--5-5-5-5-7-7-7-7-8-8-8-8---------|



----------------------------------|----------------------------------|
----------------------------------|--------------------------7-7-7-7-|
--5-5-5-5-7-7-7-7-2-2-2-2-5-5-5-5-|--5-5-5-5-7-7-7-7-9-9-9-9---------|
----------------------------------|----------------------------------|



--------------------------------------|----------------------------------|
------------------------------9-9-9-9-|----------------------------------|
--7-7-7-7-9-9-9-9-10-10-10-10---------|--------------------------7-7-7-7-|
--------------------------------------|--5-5-5-5-7-7-7-7-8-8-8-8---------|



----------------------------------|----------------------------------|
----------------------------------|----------------------------------|
--5-5-5-5-3-3-3-3-2-2-2-2-0-0-0-0-|----------------------------------|
----------------------------------|--0-0-0-0-0-0-0-0-3-3-3-3-2-2-2-2-|



--------------------------|----------------------------------|
--------------------------|----------------------------------|
-----5--7--5--3--5--3-----|----------------------------------|
--0--------------------5--|--0-0-0-0-0-0-0-0-3-3-3-3-7-7-7-7-|



----------------------------------|----|----|----|----|
----------------------------------|----|----|----|----|
----------------------------------|----|----|----|----|
--5-5-5-5-5-5-5-5-5-5-5-5-5-5-5-5-|----|----|----|----|



----------------------------------|--------------------------|
----------------------------------|--------------------------|
----------------------------------|-----5--7--5--3--5--3-----|
--0-0-0-0-0-0-0-0-3-3-3-3-2-2-2-2-|--0--------------------5--|



----------------------------------|----------------------------------|----|----|
----------------------------------|----------------------------------|----|----|
----------------------------------|----------------------------------|----|----|
--0-0-0-0-0-0-0-0-3-3-3-3-7-7-7-7-|--5-5-5-5-5-5-5-5-5-5-5-5-5-5-5-5-|----|----|



----|----|----|-----||-----|----|----|----|----|----|----|-----||
----|----|----|----*||*----|----|----|----|----|----|----|----*||
----|----|----|----*||*----|----|----|----|----|----|----|----*||
----|----|----|-----||-----|----|----|----|----|----|----|-----||



--------------------------|--------------------------|
--------------------------|--------------------------|
--7--7--7--7--7--7--7--7--|--2--2--2--2--2--2--2--2--|
--------------------------|--------------------------|



--------------------------|--------------------------|
--------------------------|--------------------------|
--3--3--3--3--3--3--3--3--|--2--2--2--5--7--7--7--7--|
--------------------------|--------------------------|



--------------------------|--------------------------|
--------------------------|--------------------------|
--7--7--7--7--7--7--7--7--|--2--2--2--2--2--2--2--2--|
--------------------------|--------------------------|



--------------------------|--------------------------|
--------------------------|--------------------------|
--3--3--3--3--3--3--3--3--|--2--2--2--5--7--7--7--7--|
--------------------------|--------------------------|



--------------------------------------|------------------------------9-9-9-9-|
------------------------------9-9-9-9-|--7-7-7-7-9-9-9-9-10-10-10-10---------|
--7-7-7-7-9-9-9-9-10-10-10-10---------|--------------------------------------|
--------------------------------------|--------------------------------------|



----------------------------------|----------------------------------|
--------------------------7-7-7-7-|--5-5-5-5-7-7-7-7-9-9-9-9-5-5-5-5-|
--5-5-5-5-7-7-7-7-9-9-9-9---------|----------------------------------|
----------------------------------|----------------------------------|



----------------------------------|----------------------------------|
--------------------------5-5-5-5-|----------------------------------|
--3-3-3-3-5-5-5-5-7-7-7-7---------|--------------------------7-7-7-7-|
----------------------------------|--5-5-5-5-7-7-7-7-8-8-8-8---------|



----------------------------------|----------------------------------|
----------------------------------|----------------------------------|
--5-5-5-5-3-3-3-3-2-2-2-2-0-0-0-0-|--6-6-6-6-6-6-6-6-9-9-9-9-9-9-9-9-|
----------------------------------|----------------------------------|



------------------------------------------|
------------------------------------------|
------------------10-10-10-10-10-10-10-10-|
--7-7-7-7-7-7-7-7-------------------------|



------------------------------------------|
------------------------------------------|
------------------12-12-12-12-12-12-12-12-|
--8-8-8-8-8-8-8-8-------------------------|



--------------------------------------------------|---||
--------------------------------------------------|---||
--------------------------14-14-14-14-14-14-14-14-|---||
--10-10-10-10-10-10-10-10-------------------------|---||
  development and support by
dmitry ivanov