rock
 
|tablatures   |lyrics   |discussion forums   |more tabs @ XGuitar.com

Helloween tabs

Just A Little Sign bass tab

tune down


F#||------------------|----------------------------------|
C#||------------------|----------------------------------|
G#||------------------|----------------------------------|
D#||------------------|--3-3-3-3-3-3-3-3-3-3-3-3-3-3-3-3-|
A#||------------------|----------------------------------|



----------------------------------|----------------------------------|
--------------------------4-4-4-4-|----------------------------------|
--5-5-5-5-5-5-5-5-5-5-5-5---------|--7-7-7-7-7-7-7-7-7-7-7-7-7-7-7-7-|
----------------------------------|----------------------------------|
----------------------------------|----------------------------------|



----------------------------------|----------------------------------|
----------------------------------|----------------------------------|
----------------------------------|--3-3-3-3-3-3-3-3-3-3-3-3-3-3-3-3-|
--2-2-2-2-2-2-3-3-3-3-3-3-5-5-5-5-|----------------------------------|
----------------------------------|----------------------------------|



--------------------------------------|----------------------------------|
--------------------------------------|----------------------------------|
--10-10-10-10-9-9-9-9-7-7-7-7-5-5-5-5-|----------------------------------|
--------------------------------------|--2-2-2-2-2-2-3-3-3-3-3-3-5-5-5-5-|
--------------------------------------|----------------------------------|



----------------------------------|-------------------|------------------|
----------------------------------|-------------------|------------------|
----------2-2-3-3-5-5-7-7-7-7-7-7-|-------------------|------------------|
--3-3-5-5-------------------------|--0----------------|------------------|
----------------------------------|-------------------|------------------|



-------------------|-----------------------|----------------------------------|
-------------------|-----------------------|--------------7-------------------|
-------------------|-----------------------|--8-7-----------8-----8---7-------|
--0----------------|-----------------------|------0-0-0-0-----0-0---0---0-0-0-|
-------------------|--3---5---7--5----3----|----------------------------------|



-----------------------|----------------------------------|
-----------------------|--------------7-------------------|
-----------------------|--8-7-----------8-----8---7-------|
-----------------------|------0-0-0-0-----0-0---0---0-0-0-|
--3---5---7--5----3----|----------------------------------|



-----------------------|----------------------------------|
-----------------------|----------------------------------|
-----------------------|----------------------------------|
-----------------------|--8-8-8-8-8-8-8-8-8-8-8-8-8-8-8-8-|
--3---5---7--5----3----|----------------------------------|



----------------------------------|----------------------------------|
----------------------------------|----------------------------------|
--7-7-7-7-7-7-7-7-7-7-7-7-7-7-7-7-|----------------------------------|
----------------------------------|--8-8-8-8-8-8-8-8-8-8-8-8-8-8-8-8-|
----------------------------------|----------------------------------|



----------------------------------|----------------------------------|
----------------------------------|----------------------------------|
--7-7-7-7-7-7-7-7-7-7-7-7-7-7-7-7-|----------------------------------|
----------------------------------|--8-8-8-8-8-8-8-8-8-8-8-8-8-8-8-8-|
----------------------------------|----------------------------------|



----------------------------------|----------------------------------|
----------------------------------|----------------------------------|
--7-7-7-7-7-7-7-7-7-7-7-7-7-7-7-7-|----------------------------------|
----------------------------------|--8-8-8-8-8-8-8-8-8-8-8-8-8-8-8-8-|
----------------------------------|----------------------------------|



----------------------------------|-------------------|
----------------------------------|-------------------|
--7-7-7-7-7-7-7-7-7-7-7-7-7-7-7-7-|--5----------------|
----------------------------------|-------------------|
----------------------------------|-------------------|



----------------------------------|----------------------------------|
----------------------------------|----------------------------------|
----------------------------------|--7-7-7-7-7-7-7-7-7-7-7-7-7-7-7-7-|
--8-8-8-8-8-8-8-8-8-8-8-8-8-8-8-8-|----------------------------------|
----------------------------------|----------------------------------|



----------------------------------|----------------------------------|
----------------------------------|----------------------------------|
----------------------------------|--7-7-7-7-7-7-7-7-7-7-7-7-7-7-7-7-|
--8-8-8-8-8-8-8-8-8-8-8-8-8-8-8-8-|----------------------------------|
----------------------------------|----------------------------------|



----------------------------------|----------------------------------|
----------------------------------|----------------------------------|
----------------------------------|--7-7-7-7-7-7-7-7-7-7-7-7-7-7-7-7-|
--8-8-8-8-8-8-8-8-8-8-8-8-8-8-8-8-|----------------------------------|
----------------------------------|----------------------------------|



----------------------------------|----------------------------------|
----------------------------------|----------------------------------|
----------------------------------|--7-7-7-7-7-7-7-7-7-7-7-7-7-7-7-7-|
--8-8-8-8-8-8-8-8-8-8-8-8-8-8-8-8-|----------------------------------|
----------------------------------|----------------------------------|



-------------------||-----------------------------------|
-------------------||*----------------------------------|
--5----------------||-----------------------------------|
-------------------||*--3-3-3-3-3-3-3-3-3-3-3-3-3-3-3-3-|
-------------------||-----------------------------------|



----------------------------------|----------------------------------|
--------------------------4-4-4-4-|----------------------------------|
--5-5-5-5-5-5-5-5-5-5-5-5---------|--7-7-7-7-7-7-7-7-7-7-7-7-7-7-7-7-|
----------------------------------|----------------------------------|
----------------------------------|----------------------------------|



----------------------------------|----------------------------------|
----------------------------------|----------------------------------|
----------------------------------|--3-3-3-3-3-3-3-3-3-3-3-3-3-3-3-3-|
--2-2-2-2-2-2-3-3-3-3-3-3-5-5-5-5-|----------------------------------|
----------------------------------|----------------------------------|



--------------------------------------|----------------------------------|
--------------------------------------|----------------------------------|
--10-10-10-10-9-9-9-9-7-7-7-7-5-5-5-5-|----------------------------------|
--------------------------------------|--2-2-2-2-2-2-3-3-3-3-3-3-5-5-5-5-|
--------------------------------------|----------------------------------|



-----------------------------------||----------------------------------|
----------------------------------*||--------------7-------------------|
----------2-2-3-3-5-5-7-7-7-7-7-7--||--8-7-----------8-----8---7-------|
--3-3-5-5-------------------------*||------0-0-0-0-----0-0---0---0-0-0-|
-----------------------------------||----------------------------------|



-----------------------|----------------------------------|
-----------------------|--------------7-------------------|
-----------------------|--8-7-----------8-----8---7-------|
-----------------------|------0-0-0-0-----0-0---0---0-0-0-|
--3---5---7--5----3----|----------------------------------|



-----------------------|----------------------------------|
-----------------------|----------------------------------|
-----------------------|----------------------------------|
-----------------------|--8-8-8-8-8-8-8-8-8-8-8-8-8-8-8-8-|
--3---5---7--5----3----|----------------------------------|



----------------------------------|----------------------------------|
----------------------------------|----------------------------------|
--7-7-7-7-7-7-7-7-7-7-7-7-7-7-7-7-|----------------------------------|
----------------------------------|--8-8-8-8-8-8-8-8-8-8-8-8-8-8-8-8-|
----------------------------------|----------------------------------|



----------------------------------|----------------------------------|
----------------------------------|----------------------------------|
--7-7-7-7-7-7-7-7-7-7-7-7-7-7-7-7-|----------------------------------|
----------------------------------|--8-8-8-8-8-8-8-8-8-8-8-8-8-8-8-8-|
----------------------------------|----------------------------------|



----------------------------------|----------------------------------|
----------------------------------|----------------------------------|
--7-7-7-7-7-7-7-7-7-7-7-7-7-7-7-7-|----------------------------------|
----------------------------------|--8-8-8-8-8-8-8-8-8-8-8-8-8-8-8-8-|
----------------------------------|----------------------------------|



----------------------------------|-------------------|
----------------------------------|-------------------|
--7-7-7-7-7-7-7-7-7-7-7-7-7-7-7-7-|--5----------------|
----------------------------------|-------------------|
----------------------------------|-------------------|



|-----------------------------------|----------------------------------|
|*----------------------------------|--------------------------4-4-4-4-|
|-----------------------------------|--5-5-5-5-5-5-5-5-5-5-5-5---------|
|*--3-3-3-3-3-3-3-3-3-3-3-3-3-3-3-3-|----------------------------------|
|-----------------------------------|----------------------------------|



----------------------------------|----------------------------------|
----------------------------------|----------------------------------|
--7-7-7-7-7-7-7-7-7-7-7-7-7-7-7-7-|----------------------------------|
----------------------------------|--2-2-2-2-2-2-3-3-3-3-3-3-5-5-5-5-|
----------------------------------|----------------------------------|



----------------------------------|--------------------------------------|
----------------------------------|--------------------------------------|
--3-3-3-3-3-3-3-3-3-3-3-3-3-3-3-3-|--10-10-10-10-9-9-9-9-7-7-7-7-5-5-5-5-|
----------------------------------|--------------------------------------|
----------------------------------|--------------------------------------|



----------------------------------|-----------------------------------||
----------------------------------|----------------------------------*||
----------------------------------|----------2-2-3-3-5-5-7-7-7-7-7-7--||
--2-2-2-2-2-2-3-3-3-3-3-3-5-5-5-5-|--3-3-5-5-------------------------*||
----------------------------------|-----------------------------------||



------------------------|------------------|------------------------|
------------------------|------------------|------------------------|
------------------------|------------------|------------------------|
--0-0--0-0--0-0---------|------------------|--0-0--0-0--0-0---------|
------------------------|------------------|------------------------|



------------------|------------------------|------------------|
------------------|------------------------|------------------|
------------------|------------------------|------------------|
------------------|--0-0--0-0--0-0---------|------------------|
------------------|------------------------|------------------|



------------------------|------------------|------------------------|
------------------------|------------------|------------------------|
------------------------|------------------|------------------------|
--0-0--0-0--0-0---------|------------------|--0-0--0-0--0-0---------|
------------------------|------------------|------------------------|



------------------|------------------------|------------------|
------------------|------------------------|------------------|
------------------|------------------------|------------------|
------------------|--0-0--0-0--0-0---------|------------------|
------------------|------------------------|------------------|



------------------------|------------------|------------------------|
------------------------|------------------|------------------------|
------------------------|------------------|------------------------|
--0-0--0-0--0-0---------|------------------|--0-0--0-0--0-0---------|
------------------------|------------------|------------------------|



------------------------|------------------------|------------------------|
------------------------|------------------------|------------------------|
------------------------|------------------------|------------------------|
--0-0--0-0--0-0---------|--0-0--0-0--0-0---------|--0-0--0-0--0-0---------|
------------------------|------------------------|------------------------|



|-----------------------|----------------------|----------------------|
|*----------------------|----------------------|----------------------|
|-----------------------|----------------------|----------------------|
|*--0----0----0----0----|--0----0----0----0----|----------------------|
|-----------------------|----------------------|--1----1----1----1----|



-----------------------||-----------------------------|
----------------------*||-----------------------------|
-----------------------||-----------------------------|
----------------------*||--0-0--0-0--0-0--0-0--0-0-0--|
--1----1----1----1-----||-----------------------------|



-----------------------------|-----------------------------|
-----------------------------|-----------------------------|
-----------------------------|-----------------------------|
--0-0--0-0--0-0--0-0--0-0-0--|--0-0--0-0--0-0--0-0--0-0-0--|
-----------------------------|-----------------------------|



-----------------------------|---------------------------------|
-----------------------------|---------------------------------|
-----------------------------|--5--5-5-5-5-5-5-5-5-5-5-5-5-5-5-|
--0-0--0-0--0-0--0-0--0-0-0--|---------------------------------|
-----------------------------|---------------------------------|



----------------------------------|-----------------------------|
----------------------------------|-----------------------------|
--3-3-3-3-3-3-3-3-3-3-3-3-3-3-3-3-|-----------------------------|
----------------------------------|--0-0--0-0--0-0--0-0--0-0-0--|
----------------------------------|-----------------------------|



-----------------------------|-------------------|----|
-----------------------------|-------------------|----|
-----------------------------|-------------------|----|
--0-0--0-0--0-0--0-0--0-0-0--|--0----------------|----|
-----------------------------|-------------------|----|



|-----------------------------------|----------------------------------|
|*----------------------------------|--------------------------4-4-4-4-|
|-----------------------------------|--5-5-5-5-5-5-5-5-5-5-5-5---------|
|*--3-3-3-3-3-3-3-3-3-3-3-3-3-3-3-3-|----------------------------------|
|-----------------------------------|----------------------------------|



----------------------------------|----------------------------------|
----------------------------------|----------------------------------|
--7-7-7-7-7-7-7-7-7-7-7-7-7-7-7-7-|----------------------------------|
----------------------------------|--2-2-2-2-2-2-3-3-3-3-3-3-5-5-5-5-|
----------------------------------|----------------------------------|



----------------------------------|--------------------------------------|
----------------------------------|--------------------------------------|
--3-3-3-3-3-3-3-3-3-3-3-3-3-3-3-3-|--10-10-10-10-9-9-9-9-7-7-7-7-5-5-5-5-|
----------------------------------|--------------------------------------|
----------------------------------|--------------------------------------|



----------------------------------|-----------------------------------||
----------------------------------|----------------------------------*||
----------------------------------|----------2-2-3-3-5-5-7-7-7-7-7-7--||
--2-2-2-2-2-2-3-3-3-3-3-3-5-5-5-5-|--3-3-5-5-------------------------*||
----------------------------------|-----------------------------------||



-----------------------------------|----------------------------------|
*----------------------------------|----------------------------------|
-----------------------------------|--------------------------5-5-5-5-|
*--3-3-3-3-3-3-3-3-3-3-3-3-3-3-3-3-|--3-3-3-3-3-3-3-3-3-3-3-3---------|
-----------------------------------|----------------------------------|



----------------------------------|-----------------------------------||
----------------------------------|----------------------------------*||
----------------------------------|--------------------------5-5-5-5--||
--0-0-0-0-0-0-0-0-0-0-0-0-0-0-0-0-|--0-0-0-0-0-0-0-0-0-0-0-0---------*||
----------------------------------|-----------------------------------||



----------------------------------||-----------------------------------|
----------------------------------||*----------------------------------|
--------------------------5-5-5-5-||-----------------------------------|
--0-0-0-0-0-0-0-0-0-0-0-0---------||*--3-3-3-3-3-3-3-3-3-3-3-3-3-3-3-3-|
----------------------------------||-----------------------------------|



----------------------------------|----------------------------------|
--------------------------4-4-4-4-|----------------------------------|
--5-5-5-5-5-5-5-5-5-5-5-5---------|--7-7-7-7-7-7-7-7-7-7-7-7-7-7-7-7-|
----------------------------------|----------------------------------|
----------------------------------|----------------------------------|



----------------------------------|----------------------------------|
----------------------------------|----------------------------------|
----------------------------------|--3-3-3-3-3-3-3-3-3-3-3-3-3-3-3-3-|
--2-2-2-2-2-2-3-3-3-3-3-3-5-5-5-5-|----------------------------------|
----------------------------------|----------------------------------|



--------------------------------------|----------------------------------|
--------------------------------------|----------------------------------|
--10-10-10-10-9-9-9-9-7-7-7-7-5-5-5-5-|----------------------------------|
--------------------------------------|--2-2-2-2-2-2-3-3-3-3-3-3-5-5-5-5-|
--------------------------------------|----------------------------------|



-----------------------------------||----------------------------------|
----------------------------------*||--------------7-------------------|
----------2-2-3-3-5-5-7-7-7-7-7-7--||--8-7-----------8-----8---7-------|
--3-3-5-5-------------------------*||------0-0-0-0-----0-0---0---0-0-0-|
-----------------------------------||----------------------------------|



-----------------------|----------------------------------|
-----------------------|--------------7-------------------|
-----------------------|--8-7-----------8-----8---7-------|
-----------------------|------0-0-0-0-----0-0---0---0-0-0-|
--3---5---7--5----3----|----------------------------------|



-----------------------|----------------------------|------------------------||
-----------------------|----------------------------|------------------------||
-----------------------|----------------------------|------------------------||
-----------------------|--0-0--0-0--0-0--0-0--0-0---|--0-0--0-0--0-0---------||
--3---5---7--5----3----|----------------------------|------------------------||
  development and support by
dmitry ivanov