rock
 
|tablatures   |lyrics   |discussion forums   |more tabs @ XGuitar.com

Helloween tabs

Invitation bass tab

Author/Artist: Helloween
Title: Invitation
Album: Keeper Of The Seven Keys Part II
Transcribed by: André Baida da Silva from Brazil
Email: andrecp@bestway.com.br



G-----------------------------------------------|----------1---1----------6----
D----2--1-----------------2---------------------|---2--4-----------4--------6--
A----------2--4--------------4----2-2-2-2-2-2---|----------------------4-------
E------------------4--5-------------------------|------------------------------
                                                                              

G---------------------|-----------------------------------------------|--------
D---------------------|---2--1-----------------2----------------------|--------
A----2-2-2-2-2-2-2-2--|---------2--4-------0------2-2-2-2-2-2-2-2-2-2-|--------
E---------------------|----------------4------------------------------|--------
                                                                              

G----------1--------------------1---------------------------------------|------
D----2--4-----2--1--------------------------------2-----2-----2-----2---|------
A----------------------4-----4-------2------2---------------------------|------
E-----------------------------------------------------------------------|------
                                                                              

End.
  development and support by
dmitry ivanov