rock
 
|tablatures   |lyrics   |discussion forums   |more tabs @ XGuitar.com

Helloween tabs

Initiation guitar tab

Initiation

E-----------------------------------------------
B-----------------------------------------------
G-----------------------------------------------
D-----------------------------------------------
A---7---2--4--7---2--4--7--9--7--6---7--6--2--4-
E---5---0--2--5---0--2--5--7--5--4---5--4--0--2-


A---2--4---2--4--7---2--4--7--9--7--6-  
E---0--2---0--2--5---0--2--5--7--5--4- CONTINUE RIFF

FINISH WITH

A---7--6--4--2-   
E---5--4--2--0-

"our future life will be glorious"

Chris Jaques,
Melbourne
Australia.
craigj@virtual.net.au
  development and support by
dmitry ivanov