rock
 
|tablatures   |lyrics   |discussion forums   |more tabs @ XGuitar.com

Helloween tabs

If I Could Fly bass tab

Helloween - If I Could Fly
Submitted By: stratovarius5000
EMail: stratovarius5000@yahoo.com


Verse

G----------------------------------------|
D----------------------------------------|
A-0-00-0-0-------------------------5--5--|
E-----------3-33-3-3--0-00-0-0---00-00---|
				|_______|
				    |
				this part have a
				differet time, just
				listen the song


Guitar Solo (from 2:23 to 2:48) x4

G----------------------------------------|
D----------------------------------------|
A-0-000-000-000-00-----------------------|
E-------------------1-111-111-111-11-----|


Break (2:49) X3

		/Third time stop here
G---------------|------------------|
D---------------|------------------|
A-000--000---000|------------------|
E---------------|1-111-111-11-1_3--|
				|----this is not 13 but 1 & 3

Finish with the verse, and fade out...
  development and support by
dmitry ivanov