rock
 
|tablatures   |lyrics   |discussion forums   |more tabs @ XGuitar.com

Helloween tabs

I Want Out Rhythm guitar tab

                                  I Want Out                                    


                                                                       Helloween
Rhythm




                                                             
E||------------------|-------------------|------------------|
B||------------------|-------------------|------------------|
G||------------------|--7----------------|------------------|
D||------------------|--7----------------|------------------|
A||------------------|--5----------------|------------------|
E||------------------|-------------------|------------------|


                                                                 
-------------------|------------------------|-------------------|
-------------------|------------------------|-------------------|
--3----------------|--------5----------5----|--7----------------|
--3----------------|--------5----------5----|--7----------------|
--1----------------|--3--3--3----3--3--3----|--5----------------|
-------------------|------------------------|-------------------|


                                                                
------------------|-------------------|------------------------|
------------------|-------------------|------------------------|
------------------|--3----------------|--------5----------5----|
------------------|--3----------------|--------5----------5----|
------------------|--1----------------|--3--3--3----3--3--3----|
------------------|-------------------|------------------------|


                                                           
-------------------|------------------|-------------------|
-------------------|------------------|-------------------|
--7----------------|------------------|--3----------------|
--7----------------|------------------|--3----------------|
--5----------------|------------------|--1----------------|
-------------------|------------------|-------------------|


                                                                
------------------------|-------------------|------------------|
------------------------|-------------------|------------------|
--------5----------5----|--7----------------|------------------|
--------5----------5----|--7----------------|------------------|
--3--3--3----3--3--3----|--5----------------|------------------|
------------------------|-------------------|------------------|


                                                                 
-------------------|------------------------|-------------------|
-------------------|------------------------|-------------------|
--3----------------|--------5----------5----|--7----------------|
--3----------------|--------5----------5----|--7----------------|
--1----------------|--3--3--3----3--3--3----|--5----------------|
-------------------|------------------------|-------------------|


                                                                  
------------------|------------------|---------------------------|
------------------|------------------|---------------------------|
------------------|------------------|--12--12--10----9----5--7--|
------------------|------------------|--12--12--10----9----5--7--|
------------------|------------------|--10--10--8-----7----3--5--|
------------------|------------------|---------------------------|


                                                                            
------------------|------------------|------------------|------------------|
------------------|------------------|------------------|------------------|
------------------|------------------|------------------|------------------|
------------------|------------------|------------------|------------------|
------------------|------------------|------------------|------------------|
------------------|------------------|------------------|------------------|


                                                         
------------------|------------------|------------------|
------------------|------------------|------------------|
------------------|------------------|------------------|
------------------|------------------|------------------|
------------------|------------------|------------------|
------------------|------------------|------------------|


                                                                  
---------------------------|------------------|------------------|
---------------------------|------------------|------------------|
--12--12--10----9----5--7--|------------------|------------------|
--12--12--10----9----5--7--|------------------|------------------|
--10--10--8-----7----3--5--|------------------|------------------|
---------------------------|------------------|------------------|


                                                                            
------------------|------------------|------------------|------------------|
------------------|------------------|------------------|------------------|
------------------|------------------|------------------|------------------|
------------------|------------------|------------------|------------------|
------------------|------------------|------------------|------------------|
------------------|------------------|------------------|------------------|


                                                                               
------------------|--------------------|-------------------|------------------|
------------------|--------------------|-------------------|------------------|
------------------|------------7--7----|--5----------------|------------------|
------------------|------------7--7----|--5----------------|------------------|
------------------|------------5--5----|--3----------------|------------------|
------------------|--------------------|-------------------|------------------|


                                                                              
-------------------|------------------|-------------------|------------------|
-------------------|------------------|-------------------|------------------|
-------------------|------------------|-------------------|------------------|
--5----------------|------------------|--8----------------|------------------|
--5----------------|------------------|--8----------------|------------------|
--3----------------|------------------|--6----------------|------------------|


                                                                      
--------------------------|----------------------|-------------------|
--------------------------|----------------------|-------------------|
--------------------------|-----------10--9------|--7----------------|
--7--7--7--7--7--7--7--7--|--7--------10--9------|--7----------------|
--7--7--7--7--7--7--7--7--|--7--------8---7------|--5----------------|
--5--5--5--5--5--5--5--5--|--5-------------------|-------------------|


                                                                
------------------|-------------------|------------------------|
------------------|-------------------|------------------------|
------------------|--3----------------|--------5----------5----|
------------------|--3----------------|--------5----------5----|
------------------|--1----------------|--3--3--3----3--3--3----|
------------------|-------------------|------------------------|


                                                           
-------------------|------------------|-------------------|
-------------------|------------------|-------------------|
--7----------------|------------------|--3----------------|
--7----------------|------------------|--3----------------|
--5----------------|------------------|--1----------------|
-------------------|------------------|-------------------|


                                                                
------------------------|-------------------|------------------|
------------------------|-------------------|------------------|
--------5----------5----|--7----------------|------------------|
--------5----------5----|--7----------------|------------------|
--3--3--3----3--3--3----|--5----------------|------------------|
------------------------|-------------------|------------------|


                                                                 
-------------------|------------------------|-------------------|
-------------------|------------------------|-------------------|
--3----------------|--------5----------5----|--7----------------|
--3----------------|--------5----------5----|--7----------------|
--1----------------|--3--3--3----3--3--3----|--5----------------|
-------------------|------------------------|-------------------|


                                                               
------------------|-------------------|-----------------------|
------------------|-------------------|-----------------------|
------------------|--3----------------|--5--5--5--5--5--------|
------------------|--3----------------|--5--5--5--5--5--------|
------------------|--1----------------|--3--3--3--3--3--------|
------------------|-------------------|-----------------------|


                                                           
-------------------|------------------|-------------------|
-------------------|------------------|-------------------|
--7----------------|------------------|--3----------------|
--7----------------|------------------|--3----------------|
--5----------------|------------------|--1----------------|
-------------------|------------------|-------------------|


                                                                
------------------------|-------------------|------------------|
------------------------|-------------------|------------------|
--------5----------5----|--7----------------|------------------|
--------5----------5----|--7----------------|------------------|
--3--3--3----3--3--3----|--5----------------|------------------|
------------------------|-------------------|------------------|


                                                                        
-------------------|------------------------|--------------------------|
-------------------|------------------------|--------------------------|
--3----------------|--------5----------5----|--------7--------7--------|
--3----------------|--------5----------5----|--------7--------7--------|
--1----------------|--3--3--3----3--3--3----|--5--5--5--5--5--5--5--5--|
-------------------|------------------------|--------------------------|


                                                                               
-------------------------|--------------------------|-------------------------|
-------------------------|--------------------------|-------------------------|
--7--------7--------7----|--------7--------7--------|--3--------3--------3----|
--7--------7--------7----|--------7--------7--------|--3--------3--------3----|
--5--5--5--5--5--5--5----|--5--5--5--5--5--5--5--5--|--1--1--1--1--1--1--1----|
-------------------------|--------------------------|-------------------------|


                                                                                
--------------------------|-------------------------|--------------------------|
--------------------------|-------------------------|--------------------------|
--------5--------5--------|--5--------5--------5----|--------7--------7--------|
--------5--------5--------|--5--------5--------5----|--------7--------7--------|
--3--3--3--3--3--3--3--3--|--3--3--3--3--3--3--3----|--5--5--5--5--5--5--5--5--|
--------------------------|-------------------------|--------------------------|


                                                                                
---------------------------|-------------------------|-------------------------|
---------------------------|-------------------------|-------------------------|
--12--12--10----9----5--7--|-------7--------7--------|--7--------7--------7----|
--12--12--10----9----5--7--|-------7--------7--------|--7--------7--------7----|
--10--10--8-----7----3--5--|----5--5--5--5--5--5--5--|--5--5--5--5--5--5--5----|
---------------------------|-------------------------|-------------------------|


                                                                                
--------------------------|-------------------------|--------------------------|
--------------------------|-------------------------|--------------------------|
--------7--------7--------|--3--------3--------3----|--------5--------5--------|
--------7--------7--------|--3--------3--------3----|--------5--------5--------|
--5--5--5--5--5--5--5--5--|--1--1--1--1--1--1--1----|--3--3--3--3--3--3--3--3--|
--------------------------|-------------------------|--------------------------|


                                                                              
-------------------------|--------------------------|------------------------|
-------------------------|--------------------------|------------------------|
--5--------5--------5----|--------7--------7--------|--7--------7----7--7----|
--5--------5--------5----|--------7--------7--------|--7--------7----7--7----|
--3--3--3--3--3--3--3----|--5--5--5--5--5--5--5--5--|--5--5--5--5----5--5----|
-------------------------|--------------------------|------------------------|


                                                                              
-------------------|------------------|-------------------|------------------|
-------------------|------------------|-------------------|------------------|
--5----------------|------------------|-------------------|------------------|
--5----------------|------------------|--5----------------|------------------|
--3----------------|------------------|--5----------------|------------------|
-------------------|------------------|--3----------------|------------------|


                                                                  
-------------------|------------------|--------------------------|
-------------------|------------------|--------------------------|
-------------------|------------------|--------------------------|
--8----------------|------------------|--7--7--7--7--7--7--7--7--|
--8----------------|------------------|--7--7--7--7--7--7--7--7--|
--6----------------|------------------|--5--5--5--5--5--5--5--5--|


                                                              
----------------------|-------------------|------------------|
----------------------|-------------------|------------------|
-----------10--9------|--7----------------|------------------|
--7--------10--9------|--7----------------|------------------|
--7--------8---7------|--5----------------|------------------|
--5-------------------|-------------------|------------------|


                                                                 
-------------------|------------------------|-------------------|
-------------------|------------------------|-------------------|
--3----------------|--------5----------5----|--7----------------|
--3----------------|--------5----------5----|--7----------------|
--1----------------|--3--3--3----3--3--3----|--5----------------|
-------------------|------------------------|-------------------|


                                                                
------------------|-------------------|------------------------|
------------------|-------------------|------------------------|
------------------|--3----------------|--------5----------5----|
------------------|--3----------------|--------5----------5----|
------------------|--1----------------|--3--3--3----3--3--3----|
------------------|-------------------|------------------------|


                                                           
-------------------|------------------|-------------------|
-------------------|------------------|-------------------|
--7----------------|------------------|--3----------------|
--7----------------|------------------|--3----------------|
--5----------------|------------------|--1----------------|
-------------------|------------------|-------------------|


                                                                
------------------------|-------------------|------------------|
------------------------|-------------------|------------------|
--------5----------5----|--7----------------|------------------|
--------5----------5----|--7----------------|------------------|
--3--3--3----3--3--3----|--5----------------|------------------|
------------------------|-------------------|------------------|


                                                                
-------------------|-----------------------|-------------------|
-------------------|-----------------------|-------------------|
--3----------------|--5--5--5--5--5--------|--7----------------|
--3----------------|--5--5--5--5--5--------|--7----------------|
--1----------------|--3--3--3--3--3--------|--5----------------|
-------------------|-----------------------|-------------------|


                                                          
------------------|------------------|-------------------|
------------------|------------------|-------------------|
------------------|------------------|--x----------------|
------------------|------------------|--x----------------|
------------------|------------------|--x----------------|
------------------|------------------|-------------------|


                                                                      
------------------------|--------------------|-----------------------|
------------------------|--------------------|-----------------------|
------------------------|--------------------|-----------------------|
--------------7------7--|--7----7------------|--------------7--------|
--------------7------7--|--7----7------------|--------------7--------|
--5--5--5--5--5------5--|--5----5------------|--5--5--5--5--5--------|


                                                                              
-------------------------------|------------------------|--------------------|
-------------------------------|------------------------|--------------------|
------------7--9--7-9-7--------|------------------------|--------------------|
--7--9--10--------------10--9--|--------------5------5--|--5----5------------|
-------------------------------|--------------5------5--|--5----5------------|
-------------------------------|--3--3--3--3--3------3--|--3----3------------|


                                                                               
-----------------------|-----------------------------|------------------------|
-----------------------|-----------------------------|------------------------|
-----------------------|-----------5--7--5-7-5-------|------------------------|
--------------5--------|--5--7--9--------------9--7--|--------------3------3--|
--------------5--------|-----------------------------|--------------3------3--|
--3--3--3--3--3--------|-----------------------------|--1--1--1--1--1------1--|


                                                                           
--------------------|-----------------------|-----------------------------|
--------------------|-----------------------|-----------------------------|
--------------------|-----------------------|-----------4--5--4-5-4-------|
--3----3------------|--------------3--------|--3--5--7--------------7--9--|
--3----3------------|--------------3--------|-----------------------------|
--1----1------------|--1--1--1--1--1--------|-----------------------------|


                                                                              
-------------------|------------------|-------------------|------------------|
-------------------|------------------|-------------------|------------------|
-------------------|------------------|-------------------|------------------|
--5----------------|------------------|--2----------------|------------------|
--5----------------|------------------|--2----------------|------------------|
--3----------------|------------------|--0----------------|------------------|


                                                                                
-------------------|-------------------|-------------------|-------------------|
-------------------|-------------------|-------------------|-------------------|
-------------------|-------------------|-------------------|-------------------|
--7----------------|--3----------------|--5----------------|--2----------------|
--7----------------|--3----------------|--5----------------|--2----------------|
--5----------------|--1----------------|--3----------------|--0----------------|


                                                                               
-------------------------|-------------------------|--------------------------|
-------------------------|-------------------------|--------------------------|
-------------------------|-------------------------|--------------------------|
--------3-----------3----|--------5-----------5----|--------7--------7--------|
--------3-----------3----|--------5-----------5----|--------7--------7--------|
--1--1--1--1--1--1--1----|--3--3--3--3--3--3--3----|--5--5--5--5--5--5--5--5--|


                                                                  
-------------------------|-------------------|-------------------|
-------------------------|-------------------|-------------------|
-------------------------|-------------------|-------------------|
--7--------7--------7----|--7----------------|--3----------------|
--7--------7--------7----|--7----------------|--3----------------|
--5--5--5--5--5--5--5----|--5----------------|--1----------------|


                                                                                
-------------------|-------------------|-------------------|-------------------|
-------------------|-------------------|-------------------|-------------------|
-------------------|-------------------|-------------------|--7----------------|
--5----------------|--2----------------|--7----------------|--7----------------|
--5----------------|--2----------------|--7----------------|--5----------------|
--3----------------|--0----------------|--5----------------|-------------------|


                                                                            
--------------------------|-------------------------|----------------------|
--------------------------|-------------------------|----------------------|
--------------------------|-------------------------|--7------------9--10--|
--------2--------2--------|--2--------2--------2----|--7------------9--10--|
--------2--------2--------|--2--------2--------2----|--5------------7--8---|
--0--0--0--0--0--0--0--0--|--0--0--0--0--0--0--0----|----------------------|


                                                          
------------------|-------------------|------------------|
------------------|-------------------|------------------|
------------------|--5----------------|------------------|
------------------|--5----------------|------------------|
------------------|--3----------------|------------------|
------------------|-------------------|------------------|


                                                              
----------------------|------------------|-------------------|
----------------------|------------------|-------------------|
--7------------9--10--|------------------|--5----------------|
--7------------9--10--|------------------|--5----------------|
--5------------7--8---|------------------|--3----------------|
----------------------|------------------|-------------------|


                                                             
------------------|----------------------|------------------|
------------------|----------------------|------------------|
------------------|--7------------9--10--|------------------|
------------------|--7------------9--10--|------------------|
------------------|--5------------7--8---|------------------|
------------------|----------------------|------------------|


                                                              
-------------------|------------------|----------------------|
-------------------|------------------|----------------------|
--5----------------|------------------|--7------------9--10--|
--5----------------|------------------|--7------------9--10--|
--3----------------|------------------|--5------------7--8---|
-------------------|------------------|----------------------|


                                                                              
------------------|-------------------|------------------|-------------------|
------------------|-------------------|------------------|-------------------|
------------------|--5----------------|------------------|--7----------------|
------------------|--5----------------|------------------|--7----------------|
------------------|--3----------------|------------------|--5----------------|
------------------|-------------------|------------------|-------------------|


                                                                            
------------------|------------------|------------------|------------------|
------------------|------------------|------------------|------------------|
------------------|------------------|------------------|------------------|
------------------|------------------|------------------|------------------|
------------------|------------------|------------------|------------------|
------------------|------------------|------------------|------------------|


                                                                            
------------------|------------------|------------------|------------------|
------------------|------------------|------------------|------------------|
------------------|------------------|------------------|------------------|
------------------|------------------|------------------|------------------|
------------------|------------------|------------------|------------------|
------------------|------------------|------------------|------------------|


                                                                            
------------------|------------------|------------------|------------------|
------------------|------------------|------------------|------------------|
------------------|------------------|------------------|------------------|
------------------|------------------|------------------|------------------|
------------------|------------------|------------------|------------------|
------------------|------------------|------------------|------------------|


                                                                             
------------------|------------------|------------------|-------------------|
------------------|------------------|------------------|-------------------|
------------------|------------------|------------------|--7----------------|
------------------|------------------|------------------|--7----------------|
------------------|------------------|------------------|--5----------------|
------------------|------------------|------------------|-------------------|


                                                                
------------------|-------------------|------------------------|
------------------|-------------------|------------------------|
------------------|--3----------------|--------5----------5----|
------------------|--3----------------|--------5----------5----|
------------------|--1----------------|--3--3--3----3--3--3----|
------------------|-------------------|------------------------|


                                                           
-------------------|------------------|-------------------|
-------------------|------------------|-------------------|
--7----------------|------------------|--3----------------|
--7----------------|------------------|--3----------------|
--5----------------|------------------|--1----------------|
-------------------|------------------|-------------------|


                                                                
------------------------|-------------------|------------------|
------------------------|-------------------|------------------|
--------5----------5----|--7----------------|------------------|
--------5----------5----|--7----------------|------------------|
--3--3--3----3--3--3----|--5----------------|------------------|
------------------------|-------------------|------------------|


                                                                 
-------------------|------------------------|-------------------|
-------------------|------------------------|-------------------|
--3----------------|--------5----------5----|--7----------------|
--3----------------|--------5----------5----|--7----------------|
--1----------------|--3--3--3----3--3--3----|--5----------------|
-------------------|------------------------|-------------------|


                                                               
------------------|-------------------|-----------------------|
------------------|-------------------|-----------------------|
------------------|--3----------------|--5--5--5--5--5--------|
------------------|--3----------------|--5--5--5--5--5--------|
------------------|--1----------------|--3--3--3--3--3--------|
------------------|-------------------|-----------------------|


                                                           
-------------------|------------------|-------------------|
-------------------|------------------|-------------------|
--9----------------|------------------|--5----------------|
--9----------------|------------------|--5----------------|
--7----------------|------------------|--3----------------|
-------------------|------------------|-------------------|


                                                                
------------------------|-------------------|------------------|
------------------------|-------------------|------------------|
--------7----------7----|--9----------------|------------------|
--------7----------7----|--9----------------|------------------|
--5--5--5----5--5--5----|--7----------------|------------------|
------------------------|-------------------|------------------|


                                                                 
-------------------|------------------------|-------------------|
-------------------|------------------------|-------------------|
--5----------------|--------7----------7----|--9----------------|
--5----------------|--------7----------7----|--9----------------|
--3----------------|--5--5--5----5--5--5----|--7----------------|
-------------------|------------------------|-------------------|


                                                                
------------------|-------------------|------------------------|
------------------|-------------------|------------------------|
------------------|--5----------------|--------7----------7----|
------------------|--5----------------|--------7----------7----|
------------------|--3----------------|--5--5--5----5--5--5----|
------------------|-------------------|------------------------|


                                                           
-------------------|------------------|-------------------|
-------------------|------------------|-------------------|
--9----------------|------------------|--5----------------|
--9----------------|------------------|--5----------------|
--7----------------|------------------|--3----------------|
-------------------|------------------|-------------------|


                                                 
------------------------|----------------------||
------------------------|----------------------||
--------7----------7----|--9--9----------9--9--||
--------7----------7----|--9--9----------9--9--||
--5--5--5----5--5--5----|--7--7\---------7--7\-||
------------------------|----------------------||



  development and support by
dmitry ivanov