rock
 
|tablatures   |lyrics   |discussion forums   |more tabs @ XGuitar.com

Helloween tabs

I Want Out Lead2 guitar tab

                                  I Want Out                                    


                                                                       Helloween
Lead 2




                                                           
E||--------------------|--20------20------20------20------|
B||----------------18--|------18------18------18------18--|
G||--------------------|----------------------------------|
D||--------------------|----------------------------------|
A||--------------------|----------------------------------|
E||--------------------|----------------------------------|


                                                                
--18------20----17----------|--20------20------20------20------|
------18----------------18--|------18------18------18------18--|
----------------------------|----------------------------------|
----------------------------|----------------------------------|
----------------------------|----------------------------------|
----------------------------|----------------------------------|


                                                                    
--18------20----22--20--18------|--20------20------20------20------|
------18--------------------18--|------18------18------18------18--|
--------------------------------|----------------------------------|
--------------------------------|----------------------------------|
--------------------------------|----------------------------------|
--------------------------------|----------------------------------|


                                                                
--18------20----17----------|--20------20------20------20------|
------18----------------18--|------18------18------18------18--|
----------------------------|----------------------------------|
----------------------------|----------------------------------|
----------------------------|----------------------------------|
----------------------------|----------------------------------|


                                                                    
--18------20----22--20--18------|--20------20------20------20------|
------18--------------------18--|------18------18------18------18--|
--------------------------------|----------------------------------|
--------------------------------|----------------------------------|
--------------------------------|----------------------------------|
--------------------------------|----------------------------------|


                                                                
--18------20----17----------|--20------20------20------20------|
------18----------------18--|------18------18------18------18--|
----------------------------|----------------------------------|
----------------------------|----------------------------------|
----------------------------|----------------------------------|
----------------------------|----------------------------------|


                                                                    
--18------20----22--20--18------|--20------20------20------20------|
------18--------------------18--|------18------18------18------18--|
--------------------------------|----------------------------------|
--------------------------------|----------------------------------|
--------------------------------|----------------------------------|
--------------------------------|----------------------------------|


                                                                
--18------20----17----------|--20------20------20------20------|
------18----------------18--|------18------18------18------18--|
----------------------------|----------------------------------|
----------------------------|----------------------------------|
----------------------------|----------------------------------|
----------------------------|----------------------------------|


                                                                               
--18------20----22--20--18------|--13/-------20--------|--13/-------20/-------|
------18--------------------18--|----------------------|----------------------|
--------------------------------|----------------------|----------------------|
--------------------------------|----------------------|----------------------|
--------------------------------|----------------------|----------------------|
--------------------------------|----------------------|----------------------|


                                                                              
--24b---------------|------------------|------------------|------------------|
--------------------|------------------|------------------|------------------|
--------------------|------------------|------------------|------------------|
--------------------|------------------|------------------|------------------|
--------------------|------------------|------------------|------------------|
--------------------|------------------|------------------|------------------|


                                                                            
------------------|------------------|------------------|------------------|
------------------|------------------|------------------|------------------|
------------------|------------------|------------------|------------------|
------------------|------------------|------------------|------------------|
------------------|------------------|------------------|------------------|
------------------|------------------|------------------|------------------|


                                                                            
------------------|------------------|------------------|------------------|
------------------|------------------|------------------|------------------|
------------------|------------------|------------------|------------------|
------------------|------------------|------------------|------------------|
------------------|------------------|------------------|------------------|
------------------|------------------|------------------|------------------|


                                                                            
------------------|------------------|------------------|------------------|
------------------|------------------|------------------|------------------|
------------------|------------------|------------------|------------------|
------------------|------------------|------------------|------------------|
------------------|------------------|------------------|------------------|
------------------|------------------|------------------|------------------|


                                                                            
------------------|------------------|------------------|------------------|
------------------|------------------|------------------|------------------|
------------------|------------------|------------------|------------------|
------------------|------------------|------------------|------------------|
------------------|------------------|------------------|------------------|
------------------|------------------|------------------|------------------|


                                                                            
------------------|------------------|------------------|------------------|
------------------|------------------|------------------|------------------|
------------------|------------------|------------------|------------------|
------------------|------------------|------------------|------------------|
------------------|------------------|------------------|------------------|
------------------|------------------|------------------|------------------|


                                                                            
------------------|------------------|------------------|------------------|
------------------|------------------|------------------|------------------|
------------------|------------------|------------------|------------------|
------------------|------------------|------------------|------------------|
------------------|------------------|------------------|------------------|
------------------|------------------|------------------|------------------|


                                                                            
------------------|------------------|------------------|------------------|
------------------|------------------|------------------|------------------|
------------------|------------------|------------------|------------------|
------------------|------------------|------------------|------------------|
------------------|------------------|------------------|------------------|
------------------|------------------|------------------|------------------|


                                                                            
------------------|------------------|------------------|------------------|
------------------|------------------|------------------|------------------|
------------------|------------------|------------------|------------------|
------------------|------------------|------------------|------------------|
------------------|------------------|------------------|------------------|
------------------|------------------|------------------|------------------|


                                                                            
------------------|------------------|------------------|------------------|
------------------|------------------|------------------|------------------|
------------------|------------------|------------------|------------------|
------------------|------------------|------------------|------------------|
------------------|------------------|------------------|------------------|
------------------|------------------|------------------|------------------|


                                                                         
------------------|------------------|--20------20------20------20------|
------------------|------------------|------18------18------18------18--|
------------------|------------------|----------------------------------|
------------------|------------------|----------------------------------|
------------------|------------------|----------------------------------|
------------------|------------------|----------------------------------|


                                                                
--18------20----17----------|--20------20------20------20------|
------18----------------18--|------18------18------18------18--|
----------------------------|----------------------------------|
----------------------------|----------------------------------|
----------------------------|----------------------------------|
----------------------------|----------------------------------|


                                                                    
--18------20----22--20--18------|--20------20------20------20------|
------18--------------------18--|------18------18------18------18--|
--------------------------------|----------------------------------|
--------------------------------|----------------------------------|
--------------------------------|----------------------------------|
--------------------------------|----------------------------------|


                                                                
--18------20----17----------|--20------20------20------20------|
------18----------------18--|------18------18------18------18--|
----------------------------|----------------------------------|
----------------------------|----------------------------------|
----------------------------|----------------------------------|
----------------------------|----------------------------------|


                                                                       
--18------20----22--20--18------|------------------|------------------|
------18--------------------18--|------------------|------------------|
--------------------------------|------------------|------------------|
--------------------------------|------------------|------------------|
--------------------------------|------------------|------------------|
--------------------------------|------------------|------------------|


                                                                            
------------------|------------------|------------------|------------------|
------------------|------------------|------------------|------------------|
------------------|------------------|------------------|------------------|
------------------|------------------|------------------|------------------|
------------------|------------------|------------------|------------------|
------------------|------------------|------------------|------------------|


                                                                            
------------------|------------------|------------------|------------------|
------------------|------------------|------------------|------------------|
------------------|------------------|------------------|------------------|
------------------|------------------|------------------|------------------|
------------------|------------------|------------------|------------------|
------------------|------------------|------------------|------------------|


                                                                            
------------------|------------------|------------------|------------------|
------------------|------------------|------------------|------------------|
------------------|------------------|------------------|------------------|
------------------|------------------|------------------|------------------|
------------------|------------------|------------------|------------------|
------------------|------------------|------------------|------------------|


                                                                            
------------------|------------------|------------------|------------------|
------------------|------------------|------------------|------------------|
------------------|------------------|------------------|------------------|
------------------|------------------|------------------|------------------|
------------------|------------------|------------------|------------------|
------------------|------------------|------------------|------------------|


                                                                            
------------------|------------------|------------------|------------------|
------------------|------------------|------------------|------------------|
------------------|------------------|------------------|------------------|
------------------|------------------|------------------|------------------|
------------------|------------------|------------------|------------------|
------------------|------------------|------------------|------------------|


                                                                            
------------------|------------------|------------------|------------------|
------------------|------------------|------------------|------------------|
------------------|------------------|------------------|------------------|
------------------|------------------|------------------|------------------|
------------------|------------------|------------------|------------------|
------------------|------------------|------------------|------------------|


                                                                            
------------------|------------------|------------------|------------------|
------------------|------------------|------------------|------------------|
------------------|------------------|------------------|------------------|
------------------|------------------|------------------|------------------|
------------------|------------------|------------------|------------------|
------------------|------------------|------------------|------------------|


                                                                            
------------------|------------------|------------------|------------------|
------------------|------------------|------------------|------------------|
------------------|------------------|------------------|------------------|
------------------|------------------|------------------|------------------|
------------------|------------------|------------------|------------------|
------------------|------------------|------------------|------------------|


                                                                            
------------------|------------------|------------------|------------------|
------------------|------------------|------------------|------------------|
------------------|------------------|------------------|------------------|
------------------|------------------|------------------|------------------|
------------------|------------------|------------------|------------------|
------------------|------------------|------------------|------------------|


                                                            
------------------|------------------|---------------------|
------------------|------------------|--6/-------13--------|
------------------|------------------|---------------------|
------------------|------------------|---------------------|
------------------|------------------|---------------------|
------------------|------------------|---------------------|


                                                               
--13/-------20/-------|--24b---------------|------------------|
----------------------|--------------------|------------------|
----------------------|--------------------|------------------|
----------------------|--------------------|------------------|
----------------------|--------------------|------------------|
----------------------|--------------------|------------------|


                                                                            
------------------|------------------|------------------|------------------|
------------------|------------------|------------------|------------------|
------------------|------------------|------------------|------------------|
------------------|------------------|------------------|------------------|
------------------|------------------|------------------|------------------|
------------------|------------------|------------------|------------------|


                                                                            
------------------|------------------|------------------|------------------|
------------------|------------------|------------------|------------------|
------------------|------------------|------------------|------------------|
------------------|------------------|------------------|------------------|
------------------|------------------|------------------|------------------|
------------------|------------------|------------------|------------------|


                                                                            
------------------|------------------|------------------|------------------|
------------------|------------------|------------------|------------------|
------------------|------------------|------------------|------------------|
------------------|------------------|------------------|------------------|
------------------|------------------|------------------|------------------|
------------------|------------------|------------------|------------------|


                                                                            
------------------|------------------|------------------|------------------|
------------------|------------------|------------------|------------------|
------------------|------------------|------------------|------------------|
------------------|------------------|------------------|------------------|
------------------|------------------|------------------|------------------|
------------------|------------------|------------------|------------------|


                                                                            
------------------|------------------|------------------|------------------|
------------------|------------------|------------------|------------------|
------------------|------------------|------------------|------------------|
------------------|------------------|------------------|------------------|
------------------|------------------|------------------|------------------|
------------------|------------------|------------------|------------------|


                                                                            
------------------|------------------|------------------|------------------|
------------------|------------------|------------------|------------------|
------------------|------------------|------------------|------------------|
------------------|------------------|------------------|------------------|
------------------|------------------|------------------|------------------|
------------------|------------------|------------------|------------------|


                                                                            
------------------|------------------|------------------|------------------|
------------------|------------------|------------------|------------------|
------------------|------------------|------------------|------------------|
------------------|------------------|------------------|------------------|
------------------|------------------|------------------|------------------|
------------------|------------------|------------------|------------------|


                                                                            
------------------|------------------|------------------|------------------|
------------------|------------------|------------------|------------------|
------------------|------------------|------------------|------------------|
------------------|------------------|------------------|------------------|
------------------|------------------|------------------|------------------|
------------------|------------------|------------------|------------------|


                                                                           
--------------------------|----------------------|------------------------|
--------------------------|----------------------|------------------------|
------------------12--14--|----------14b---14----|------------------------|
--15--------15------------|----------------------|--14------------14--14--|
--------------------------|----------------------|------------------------|
--------------------------|----------------------|------------------------|


                                                              
----------------------------------|--------------------------|
----------------------------------|--------------------------|
--15--15--14--14--12--12----------|------------------12--14--|
--------------------------14--14--|--15--------15------------|
----------------------------------|--------------------------|
----------------------------------|--------------------------|


                                                  
------------------------|------------------------|
------------------------|------------------------|
----------15----14--17b-|----15----------15--15--|
------------------------|------------------------|
------------------------|------------------------|
------------------------|------------------------|


                                                              
----------------------------------|--------------------------|
--17--17--15--15--13--13----------|--------------------------|
--------------------------15--15--|------------------12--14--|
----------------------------------|--15--------15------------|
----------------------------------|--------------------------|
----------------------------------|--------------------------|


                                                
----------------------|------------------------|
----------------------|------------------------|
----------14b---14----|------------------------|
----------------------|--14------------14--14--|
----------------------|------------------------|
----------------------|------------------------|


                                                              
----------------------------------|--------------------------|
----------------------------------|--------------------------|
--15--15--14--14--12--12----------|------------------12--14--|
--------------------------14--14--|--15--------15------------|
----------------------------------|--------------------------|
----------------------------------|--------------------------|


                                                  
------------------------|------------------------|
------------------------|------------------------|
----------15----14--17b-|----15----------15--15--|
------------------------|------------------------|
------------------------|------------------------|
------------------------|------------------------|


                                                                           
----------------------------------|--------------------|------------------|
--17--17--15--15--13--13----------|--------------------|------------------|
--------------------------15--15--|--10----------------|------------------|
----------------------------------|--------------------|------------------|
----------------------------------|--------------------|------------------|
----------------------------------|--------------------|------------------|


                                                                            
------------------|------------------|------------------|------------------|
------------------|------------------|------------------|------------------|
------------------|------------------|------------------|------------------|
------------------|------------------|------------------|------------------|
------------------|------------------|------------------|------------------|
------------------|------------------|------------------|------------------|


                                                                            
------------------|------------------|------------------|------------------|
------------------|------------------|------------------|------------------|
------------------|------------------|------------------|------------------|
------------------|------------------|------------------|------------------|
------------------|------------------|------------------|------------------|
------------------|------------------|------------------|------------------|


                                                                            
------------------|------------------|------------------|------------------|
------------------|------------------|------------------|------------------|
------------------|------------------|------------------|------------------|
------------------|------------------|------------------|------------------|
------------------|------------------|------------------|------------------|
------------------|------------------|------------------|------------------|


                                                                            
------------------|------------------|------------------|------------------|
------------------|------------------|------------------|------------------|
------------------|------------------|------------------|------------------|
------------------|------------------|------------------|------------------|
------------------|------------------|------------------|------------------|
------------------|------------------|------------------|------------------|


                                                                            
------------------|------------------|------------------|------------------|
------------------|------------------|------------------|------------------|
------------------|------------------|------------------|------------------|
------------------|------------------|------------------|------------------|
------------------|------------------|------------------|------------------|
------------------|------------------|------------------|------------------|


                                                                            
------------------|------------------|------------------|------------------|
------------------|------------------|------------------|------------------|
------------------|------------------|------------------|------------------|
------------------|------------------|------------------|------------------|
------------------|------------------|------------------|------------------|
------------------|------------------|------------------|------------------|


                                                                            
------------------|------------------|------------------|------------------|
------------------|------------------|------------------|------------------|
------------------|------------------|------------------|------------------|
------------------|------------------|------------------|------------------|
------------------|------------------|------------------|------------------|
------------------|------------------|------------------|------------------|


                                                                         
------------------|------------------|--22------22------22------22------|
------------------|------------------|------20------20------20------20--|
------------------|------------------|----------------------------------|
------------------|------------------|----------------------------------|
------------------|------------------|----------------------------------|
------------------|------------------|----------------------------------|


                                                                
--20------22----19----------|--22------22------22------22------|
------20----------------20--|------20------20------20------20--|
----------------------------|----------------------------------|
----------------------------|----------------------------------|
----------------------------|----------------------------------|
----------------------------|----------------------------------|


                                                                    
--20------22----24--22--20------|--22------22------22------22------|
------20--------------------20--|------20------20------20------20--|
--------------------------------|----------------------------------|
--------------------------------|----------------------------------|
--------------------------------|----------------------------------|
--------------------------------|----------------------------------|


                                                                
--20------22----19----------|--22------22------22------22------|
------20----------------20--|------20------20------20------20--|
----------------------------|----------------------------------|
----------------------------|----------------------------------|
----------------------------|----------------------------------|
----------------------------|----------------------------------|


                                                                    
--20------22----24--22--20------|--22------22------22------22------|
------20--------------------20--|------20------20------20------20--|
--------------------------------|----------------------------------|
--------------------------------|----------------------------------|
--------------------------------|----------------------------------|
--------------------------------|----------------------------------|


                                                                
--20------22----19----------|--22------22------22------22------|
------20----------------20--|------20------20------20------20--|
----------------------------|----------------------------------|
----------------------------|----------------------------------|
----------------------------|----------------------------------|
----------------------------|----------------------------------|


                                                                    
--20------22----24--22--20------|--22------22------22------22------|
------20--------------------20--|------20------20------20------20--|
--------------------------------|----------------------------------|
--------------------------------|----------------------------------|
--------------------------------|----------------------------------|
--------------------------------|----------------------------------|


                                                                
--20------22----19----------|--22------22------22------22------|
------20----------------20--|------20------20------20------20--|
----------------------------|----------------------------------|
----------------------------|----------------------------------|
----------------------------|----------------------------------|
----------------------------|----------------------------------|


                                                     
--20------22----24--22--20------|------------------||
------20--------------------20--|------------------||
--------------------------------|------------------||
--------------------------------|------------------||
--------------------------------|------------------||
--------------------------------|------------------||



  development and support by
dmitry ivanov