rock
 
|tablatures   |lyrics   |discussion forums   |more tabs @ XGuitar.com

Helloween tabs

I Want Out Lead1 guitar tab

                                  I Want Out                                    


                                                                       Helloween
Lead 1




                                                           
E||--------------------|--17------17------17------17------|
B||----------------15--|------15------15------15------15--|
G||--------------------|----------------------------------|
D||--------------------|----------------------------------|
A||--------------------|----------------------------------|
E||--------------------|----------------------------------|


                                                                
--15------17----------------|--17------17------17------17------|
------15--------18------15--|------15------15------15------15--|
----------------------------|----------------------------------|
----------------------------|----------------------------------|
----------------------------|----------------------------------|
----------------------------|----------------------------------|


                                                                    
----------17----18--17--15------|--17------17------17------17------|
--20--15--------------------15--|------15------15------15------15--|
--------------------------------|----------------------------------|
--------------------------------|----------------------------------|
--------------------------------|----------------------------------|
--------------------------------|----------------------------------|


                                                                
--15------17----------------|--17------17------17------17------|
------15--------18------15--|------15------15------15------15--|
----------------------------|----------------------------------|
----------------------------|----------------------------------|
----------------------------|----------------------------------|
----------------------------|----------------------------------|


                                                                    
----------17----18--17--15------|--17------17------17------17------|
--20--15--------------------15--|------15------15------15------15--|
--------------------------------|----------------------------------|
--------------------------------|----------------------------------|
--------------------------------|----------------------------------|
--------------------------------|----------------------------------|


                                                                
--15------17----------------|--17------17------17------17------|
------15--------18------15--|------15------15------15------15--|
----------------------------|----------------------------------|
----------------------------|----------------------------------|
----------------------------|----------------------------------|
----------------------------|----------------------------------|


                                                                    
----------17----18--17--15------|--17------17------17------17------|
--20--15--------------------15--|------15------15------15------15--|
--------------------------------|----------------------------------|
--------------------------------|----------------------------------|
--------------------------------|----------------------------------|
--------------------------------|----------------------------------|


                                                                
--15------17----------------|--17------17------17------17------|
------15--------18------15--|------15------15------15------15--|
----------------------------|----------------------------------|
----------------------------|----------------------------------|
----------------------------|----------------------------------|
----------------------------|----------------------------------|


                                                                               
----------17----18--17--15------|--10/-------17--------|--10/-------17/-------|
--20--15--------------------15--|----------------------|----------------------|
--------------------------------|----------------------|----------------------|
--------------------------------|----------------------|----------------------|
--------------------------------|----------------------|----------------------|
--------------------------------|----------------------|----------------------|


                                                                              
--20b---------------|------------------|------------------|------------------|
--------------------|------------------|------------------|------------------|
--------------------|------------------|------------------|------------------|
--------------------|------------------|------------------|------------------|
--------------------|------------------|------------------|------------------|
--------------------|------------------|------------------|------------------|


                                                                            
------------------|------------------|------------------|------------------|
------------------|------------------|------------------|------------------|
------------------|------------------|------------------|------------------|
------------------|------------------|------------------|------------------|
------------------|------------------|------------------|------------------|
------------------|------------------|------------------|------------------|


                                                                            
------------------|------------------|------------------|------------------|
------------------|------------------|------------------|------------------|
------------------|------------------|------------------|------------------|
------------------|------------------|------------------|------------------|
------------------|------------------|------------------|------------------|
------------------|------------------|------------------|------------------|


                                                                            
------------------|------------------|------------------|------------------|
------------------|------------------|------------------|------------------|
------------------|------------------|------------------|------------------|
------------------|------------------|------------------|------------------|
------------------|------------------|------------------|------------------|
------------------|------------------|------------------|------------------|


                                                                            
------------------|------------------|------------------|------------------|
------------------|------------------|------------------|------------------|
------------------|------------------|------------------|------------------|
------------------|------------------|------------------|------------------|
------------------|------------------|------------------|------------------|
------------------|------------------|------------------|------------------|


                                                                            
------------------|------------------|------------------|------------------|
------------------|------------------|------------------|------------------|
------------------|------------------|------------------|------------------|
------------------|------------------|------------------|------------------|
------------------|------------------|------------------|------------------|
------------------|------------------|------------------|------------------|


                                                                            
------------------|------------------|------------------|------------------|
------------------|------------------|------------------|------------------|
------------------|------------------|------------------|------------------|
------------------|------------------|------------------|------------------|
------------------|------------------|------------------|------------------|
------------------|------------------|------------------|------------------|


                                                                            
------------------|------------------|------------------|------------------|
------------------|------------------|------------------|------------------|
------------------|------------------|------------------|------------------|
------------------|------------------|------------------|------------------|
------------------|------------------|------------------|------------------|
------------------|------------------|------------------|------------------|


                                                                            
------------------|------------------|------------------|------------------|
------------------|------------------|------------------|------------------|
------------------|------------------|------------------|------------------|
------------------|------------------|------------------|------------------|
------------------|------------------|------------------|------------------|
------------------|------------------|------------------|------------------|


                                                                            
------------------|------------------|------------------|------------------|
------------------|------------------|------------------|------------------|
------------------|------------------|------------------|------------------|
------------------|------------------|------------------|------------------|
------------------|------------------|------------------|------------------|
------------------|------------------|------------------|------------------|


                                                                         
------------------|------------------|--17------17------17------17------|
------------------|------------------|------15------15------15------15--|
------------------|------------------|----------------------------------|
------------------|------------------|----------------------------------|
------------------|------------------|----------------------------------|
------------------|------------------|----------------------------------|


                                                                
--15------17----------------|--17------17------17------17------|
------15--------18------15--|------15------15------15------15--|
----------------------------|----------------------------------|
----------------------------|----------------------------------|
----------------------------|----------------------------------|
----------------------------|----------------------------------|


                                                                    
----------17----18--17--15------|--17------17------17------17------|
--20--15--------------------15--|------15------15------15------15--|
--------------------------------|----------------------------------|
--------------------------------|----------------------------------|
--------------------------------|----------------------------------|
--------------------------------|----------------------------------|


                                                                
--15------17----------------|--17------17------17------17------|
------15--------18------15--|------15------15------15------15--|
----------------------------|----------------------------------|
----------------------------|----------------------------------|
----------------------------|----------------------------------|
----------------------------|----------------------------------|


                                                                       
----------17----18--17--15------|------------------|------------------|
--20--15--------------------15--|------------------|------------------|
--------------------------------|------------------|------------------|
--------------------------------|------------------|------------------|
--------------------------------|------------------|------------------|
--------------------------------|------------------|------------------|


                                                                            
------------------|------------------|------------------|------------------|
------------------|------------------|------------------|------------------|
------------------|------------------|------------------|------------------|
------------------|------------------|------------------|------------------|
------------------|------------------|------------------|------------------|
------------------|------------------|------------------|------------------|


                                                                            
------------------|------------------|------------------|------------------|
------------------|------------------|------------------|------------------|
------------------|------------------|------------------|------------------|
------------------|------------------|------------------|------------------|
------------------|------------------|------------------|------------------|
------------------|------------------|------------------|------------------|


                                                                            
------------------|------------------|------------------|------------------|
------------------|------------------|------------------|------------------|
------------------|------------------|------------------|------------------|
------------------|------------------|------------------|------------------|
------------------|------------------|------------------|------------------|
------------------|------------------|------------------|------------------|


                                                                            
------------------|------------------|------------------|------------------|
------------------|------------------|------------------|------------------|
------------------|------------------|------------------|------------------|
------------------|------------------|------------------|------------------|
------------------|------------------|------------------|------------------|
------------------|------------------|------------------|------------------|


                                                                            
------------------|------------------|------------------|------------------|
------------------|------------------|------------------|------------------|
------------------|------------------|------------------|------------------|
------------------|------------------|------------------|------------------|
------------------|------------------|------------------|------------------|
------------------|------------------|------------------|------------------|


                                                                            
------------------|------------------|------------------|------------------|
------------------|------------------|------------------|------------------|
------------------|------------------|------------------|------------------|
------------------|------------------|------------------|------------------|
------------------|------------------|------------------|------------------|
------------------|------------------|------------------|------------------|


                                                                            
------------------|------------------|------------------|------------------|
------------------|------------------|------------------|------------------|
------------------|------------------|------------------|------------------|
------------------|------------------|------------------|------------------|
------------------|------------------|------------------|------------------|
------------------|------------------|------------------|------------------|


                                                                            
------------------|------------------|------------------|------------------|
------------------|------------------|------------------|------------------|
------------------|------------------|------------------|------------------|
------------------|------------------|------------------|------------------|
------------------|------------------|------------------|------------------|
------------------|------------------|------------------|------------------|


                                                                            
------------------|------------------|------------------|------------------|
------------------|------------------|------------------|------------------|
------------------|------------------|------------------|------------------|
------------------|------------------|------------------|------------------|
------------------|------------------|------------------|------------------|
------------------|------------------|------------------|------------------|


                                                            
------------------|------------------|---------------------|
------------------|------------------|--3/-------10--------|
------------------|------------------|---------------------|
------------------|------------------|---------------------|
------------------|------------------|---------------------|
------------------|------------------|---------------------|


                                                               
--10/-------17/-------|--20b---------------|------------------|
----------------------|--------------------|------------------|
----------------------|--------------------|------------------|
----------------------|--------------------|------------------|
----------------------|--------------------|------------------|
----------------------|--------------------|------------------|


                                                         
------------------|------------------|------------------|
------------------|------------------|------------------|
------------------|------------------|------------------|
------------------|------------------|------------------|
------------------|------------------|------------------|
------------------|------------------|------------------|


                                                                    
-----------------------------|------------------|------------------|
-----------6--8--6-8-6-------|------------------|------------------|
--5--7--9--------------9--7--|------------------|------------------|
-----------------------------|------------------|------------------|
-----------------------------|------------------|------------------|
-----------------------------|------------------|------------------|


                                                                    
------------------|-----------------------------|------------------|
------------------|-----------5--6--5-6-5-------|------------------|
------------------|--4--5--7--------------7--5--|------------------|
------------------|-----------------------------|------------------|
------------------|-----------------------------|------------------|
------------------|-----------------------------|------------------|


                                                                    
------------------|------------------|-----------------------------|
------------------|------------------|-----------3--5--3-5-3-------|
------------------|------------------|--2--4--5--------------5--4--|
------------------|------------------|-----------------------------|
------------------|------------------|-----------------------------|
------------------|------------------|-----------------------------|


                                                   
--------------------------------------------------|
--12h13p12h13p12h13p12h13p12h13p12h13p12h13p12h13-|
--------------------------------------------------|
--------------------------------------------------|
--------------------------------------------------|
--------------------------------------------------|


                                                   
--------------------------------------------------|
--12h13p12h13p12h13p12h13p12h13p12h13p12h13p12h13-|
--------------------------------------------------|
--------------------------------------------------|
--------------------------------------------------|
--------------------------------------------------|


                                                   
--12h13p12h13p12h13p12h13p12h13p12h13p12h13p12h13-|
--------------------------------------------------|
--------------------------------------------------|
--------------------------------------------------|
--------------------------------------------------|
--------------------------------------------------|


                                                                
--19h20p19h20p19h20p19h20p19~-------|--------------------------|
------------------------------------|--15b-------15b---15--13--|
------------------------------------|--------------------------|
------------------------------------|--------------------------|
------------------------------------|--------------------------|
------------------------------------|--------------------------|


                                                                       
--15b-----------15b---|--15------17--15----13----|--12----------------|
----------------------|--------------------------|--------------------|
----------------------|--------------------------|--------------------|
----------------------|--------------------------|--------------------|
----------------------|--------------------------|--------------------|
----------------------|--------------------------|--------------------|


                                                               
-----------------------------|--------------------------------|
-----------------------------|------------------------10--12--|
--10--9--7--10--9--7--10--9--|--12--10--9--12--10--9----------|
-----------------------------|--------------------------------|
-----------------------------|--------------------------------|
-----------------------------|--------------------------------|


                                                                         
--------------------------------------------|---------------------------|
--13p12h13p12h13p12h13p12\10p8h10p8\6h8p6h8\|--6p5h6p5\1h3p1p0----------|
--------------------------------------------|------------------2~-------|
--------------------------------------------|---------------------------|
--------------------------------------------|---------------------------|
--------------------------------------------|---------------------------|


                                                          
----------------------15b-|----19----17h19p17------15-17-|
--15b-------15b---15------|------------------------------|
--------------------------|------------------------------|
--------------------------|------------------------------|
--------------------------|------------------------------|
--------------------------|------------------------------|


                                                                         
--19----20----20b---20----|--22b---------------|--22b-----22b-----22b---|
--------------------------|--------------------|------------------------|
--------------------------|--------------------|------------------------|
--------------------------|--------------------|------------------------|
--------------------------|--------------------|------------------------|
--------------------------|--------------------|------------------------|


                                                   
--22--20--19--20--19--17--19--17--15--------------|
--------------------------------------20--18--17--|
--------------------------------------------------|
--------------------------------------------------|
--------------------------------------------------|
--------------------------------------------------|


                                                   
--------------------------------------------------|
--------------------------------------------------|
--17h19p17h19-16h17p16h17-14h16p14h16-12h14p12h14-|
--------------------------------------------------|
--------------------------------------------------|
--------------------------------------------------|


                                                             
---------------------------------|--------------------------|
---------------------------------|--------------------------|
--10h12-9p10---------------------|--------------------------|
-------------10p12-9p10\2~-------|--12--------12----14--15--|
---------------------------------|--------------------------|
---------------------------------|--------------------------|


                                                
----------------------|------------------------|
----------------------|------------------------|
----------------------|------------------------|
----------15b---15----|------------------------|
----------------------|--15------------15--15--|
----------------------|------------------------|


                                                              
----------------------------------|--------------------------|
----------------------------------|--------------------------|
----------------------------------|--------------------------|
--17--17--15--15--14--14----------|--12--------12----14--15--|
--------------------------15--15--|--------------------------|
----------------------------------|--------------------------|


                                                  
------------------------|------------------------|
------------------------|------------------------|
------------------------|------------------------|
----------17----15--14b-|----17----------17--17--|
------------------------|------------------------|
------------------------|------------------------|


                                                              
----------------------------------|--------------------------|
----------------------------------|--------------------------|
--15--15--14--14------------------|--------------------------|
------------------17--17--14--14--|--12--------12----14--15--|
----------------------------------|--------------------------|
----------------------------------|--------------------------|


                                                
----------------------|------------------------|
----------------------|------------------------|
----------------------|------------------------|
----------15b---15----|------------------------|
----------------------|--15------------15--15--|
----------------------|------------------------|


                                                              
----------------------------------|--------------------------|
----------------------------------|--------------------------|
----------------------------------|--------------------------|
--17--17--15--15--14--14----------|--12--------12----14--15--|
--------------------------15--15--|--------------------------|
----------------------------------|--------------------------|


                                                  
------------------------|------------------------|
------------------------|------------------------|
------------------------|------------------------|
----------17----15--14b-|----17----------17--17--|
------------------------|------------------------|
------------------------|------------------------|


                                                                           
----------------------------------|--------------------|------------------|
----------------------------------|--------------------|------------------|
--15--15--14--14------------------|--------------------|------------------|
------------------17--17--14--14--|--12----------------|------------------|
----------------------------------|--------------------|------------------|
----------------------------------|--------------------|------------------|


                                                                            
------------------|------------------|------------------|------------------|
------------------|------------------|------------------|------------------|
------------------|------------------|------------------|------------------|
------------------|------------------|------------------|------------------|
------------------|------------------|------------------|------------------|
------------------|------------------|------------------|------------------|


                                                                            
------------------|------------------|------------------|------------------|
------------------|------------------|------------------|------------------|
------------------|------------------|------------------|------------------|
------------------|------------------|------------------|------------------|
------------------|------------------|------------------|------------------|
------------------|------------------|------------------|------------------|


                                                                            
------------------|------------------|------------------|------------------|
------------------|------------------|------------------|------------------|
------------------|------------------|------------------|------------------|
------------------|------------------|------------------|------------------|
------------------|------------------|------------------|------------------|
------------------|------------------|------------------|------------------|


                                                                            
------------------|------------------|------------------|------------------|
------------------|------------------|------------------|------------------|
------------------|------------------|------------------|------------------|
------------------|------------------|------------------|------------------|
------------------|------------------|------------------|------------------|
------------------|------------------|------------------|------------------|


                                                                            
------------------|------------------|------------------|------------------|
------------------|------------------|------------------|------------------|
------------------|------------------|------------------|------------------|
------------------|------------------|------------------|------------------|
------------------|------------------|------------------|------------------|
------------------|------------------|------------------|------------------|


                                                                            
------------------|------------------|------------------|------------------|
------------------|------------------|------------------|------------------|
------------------|------------------|------------------|------------------|
------------------|------------------|------------------|------------------|
------------------|------------------|------------------|------------------|
------------------|------------------|------------------|------------------|


                                                                            
------------------|------------------|------------------|------------------|
------------------|------------------|------------------|------------------|
------------------|------------------|------------------|------------------|
------------------|------------------|------------------|------------------|
------------------|------------------|------------------|------------------|
------------------|------------------|------------------|------------------|


                                                                         
------------------|------------------|--19------19------19------19------|
------------------|------------------|------17------17------17------17--|
------------------|------------------|----------------------------------|
------------------|------------------|----------------------------------|
------------------|------------------|----------------------------------|
------------------|------------------|----------------------------------|


                                                                
--17------19----15----------|--19------19------19------19------|
------17----------------17--|------17------17------17------17--|
----------------------------|----------------------------------|
----------------------------|----------------------------------|
----------------------------|----------------------------------|
----------------------------|----------------------------------|


                                                                    
--17------19----20--19--17------|--19------19------19------19------|
------17--------------------17--|------17------17------17------17--|
--------------------------------|----------------------------------|
--------------------------------|----------------------------------|
--------------------------------|----------------------------------|
--------------------------------|----------------------------------|


                                                                
--17------19----15----------|--19------19------19------19------|
------17----------------17--|------17------17------17------17--|
----------------------------|----------------------------------|
----------------------------|----------------------------------|
----------------------------|----------------------------------|
----------------------------|----------------------------------|


                                                                    
--17------19----20--19--17------|--19------19------19------19------|
------17--------------------17--|------17------17------17------17--|
--------------------------------|----------------------------------|
--------------------------------|----------------------------------|
--------------------------------|----------------------------------|
--------------------------------|----------------------------------|


                                                                
--17------19----15----------|--19------19------19------19------|
------17----------------17--|------17------17------17------17--|
----------------------------|----------------------------------|
----------------------------|----------------------------------|
----------------------------|----------------------------------|
----------------------------|----------------------------------|


                                                                    
--17------19----20--19--17------|--19------19------19------19------|
------17--------------------17--|------17------17------17------17--|
--------------------------------|----------------------------------|
--------------------------------|----------------------------------|
--------------------------------|----------------------------------|
--------------------------------|----------------------------------|


                                                                
--17------19----15----------|--19------19------19------19------|
------17----------------17--|------17------17------17------17--|
----------------------------|----------------------------------|
----------------------------|----------------------------------|
----------------------------|----------------------------------|
----------------------------|----------------------------------|


                                                     
--17------19----20--19--17------|------------------||
------17--------------------17--|------------------||
--------------------------------|------------------||
--------------------------------|------------------||
--------------------------------|------------------||
--------------------------------|------------------||



  development and support by
dmitry ivanov