rock
 
|tablatures   |lyrics   |discussion forums   |more tabs @ XGuitar.com

Helloween tabs

I Want Out bass tab

G||------------------||---------------------------|--------------------------|
D||------------------||*--------------------------|-----------------7--------|
A||------------------||*--5--5--5--5--5--5--5--5--|--5--5--5--5--5-----5--5--|
E||------------------||---------------------------|--------------------------|


                                                    3x
--------------------------|--------5----------5-----||
--------------------------|------------------------*||
--1--1--1--1--1--1--1--1--|--3--3-------3--3-------*||
--------------------------|-------------------------||



--------------------------|--------------------------|
--------------------------|--------------------------|
--5--5--5--5--5--5--5--5--|--5--5--5--5--5--5--5--5--|
--------------------------|--------------------------|



--------------------------|-------------------------|-------------------------|
--------------------------|--5--5--3--3--2----------|-------------------------|
--5--5--5--5--5--5--5--5--|-------------------3--5--|----5--5--5--5--5--5--5--|
--------------------------|-------------------------|-------------------------|



--------------------------|--------------------------|
--------------------------|--------------------------|
--5--5--5--5--5--5--5--5--|--5--5--5--5--5--5--5--5--|
--------------------------|--------------------------|



--------------------------|--------------------------|
--------------------------|--------------------------|
--1--1--1--1--1--1--1--1--|--3--3--3--3--3--3--3--3--|
--------------------------|--------------------------|



--------------------------|--------------------------|-------------------------|
--------------------------|--------------------------|--5--5--3--3--2----------|
--3--3--3--3--3--3--3--3--|--5--5--5--5--5--5--5--5--|-------------------3--5--|
--------------------------|--------------------------|-------------------------|



-------------------------|--------------------------|--------------------------|
-------------------------|--------------------------|--------------------------|
----5--5--5--5--5--5--5--|--5--5--5--5--5--5--5--5--|--5--5--5--5--5--5--5--5--|
-------------------------|--------------------------|--------------------------|



--------------------------|--------------------------|
--------------------------|--------------------------|
--1--1--1--1--1--1--1--1--|--3--3--3--3--3--3--3--3--|
--------------------------|--------------------------|



--------------------------|--------------------------|------------------------|
--------------------------|--------------------------|------------------------|
--3--3--3--3--3--3--3--3--|--5--5--5--5--5--5--5--5--|--5--5--5--5----5--5----|
--------------------------|--------------------------|------------------------|



--------------------------|--------------------------|
--------5-----------3--5--|--------------------------|
--3--3-----3--3--3--------|--3--3--3--3--3--3--3--3--|
--------------------------|--------------------------|



--------------------------|--------------------------|
--------------------------|--------------------------|
--------------------------|-----------------------0--|
--3--3--3--3--3--3--3--3--|--3--3--3--3--3--3--3-----|



--------------------------|--------------------------|
--------------------------|--------------------------|
--1--1--1--1--1--1--1--1--|--1--1--1--1--1--1--1--1--|
--------------------------|--------------------------|



-----------------2--0-----|--2------------------|--------------------------|
-----------------------2--|-----------3--2------|--------------------------|
--0--0--0--0--0-----------|---------------------|--5--5--5--5--5--5--5--5--|
--------------------------|---------------------|--------------------------|



--------------------------|--------------------------|--------5----------5----|
--------------------------|--------------------------|------------------------|
--5--5--5--5--5--5--5--5--|--1--1--1--1--1--1--1--1--|--3--3-------3--3-------|
--------------------------|--------------------------|------------------------|



--------------------------|--------------------------|
--------------------------|--------------------------|
--5--5--5--5--5--5--5--5--|--5--5--5--5--5--5--5--5--|
--------------------------|--------------------------|



--------------------------|--------5----------5----|--------------------------|
--------------------------|------------------------|--------------------------|
--1--1--1--1--1--1--1--1--|--3--3-------3--3-------|--5--5--5--5--5--5--5--5--|
--------------------------|------------------------|--------------------------|



--------------------------|--------------------------|--------5----------5----|
--------------------------|--------------------------|------------------------|
--5--5--5--5--5--5--5--5--|--1--1--1--1--1--1--1--1--|--3--3-------3--3-------|
--------------------------|--------------------------|------------------------|



--------------------------|--------------------------|
--------------------------|--------------------------|
--5--5--5--5--5--5--5--5--|--5--5--5--5--5--5--5--5--|
--------------------------|--------------------------|



--------------------------|-----------------------|--------------------------|
--------------------------|-----------------------|--------------------------|
--1--1--1--1--1--1--1--1--|--3--3--3--3--3--------|--5--5--5--5--5--5--5--5--|
--------------------------|-----------------------|--------------------------|



--------------------------|--------------------------|--------5----------5----|
-----------------7--------|--------------------------|------------------------|
--5--5--5--5--5-----5--5--|--1--1--1--1--1--1--1--1--|--3--3-------3--3-------|
--------------------------|--------------------------|------------------------|



--------------------------|--------------------------|
--------------------------|-----------------7--------|
--5--5--5--5--5--5--5--5--|--5--5--5--5--5-----5--5--|
--------------------------|--------------------------|



--------------------------|--------5----------5----|--------------------------|
--------------------------|------------------------|--------------------------|
--1--1--1--1--1--1--1--1--|--3--3-------3--3-------|--5--5--5--5--5--5--5--5--|
--------------------------|------------------------|--------------------------|



--------------------------|--------------------------|
--------------------------|--------------------------|
--5--5--5--5--5--5--5--5--|--5--5--5--5--5--5--5--5--|
--------------------------|--------------------------|



--------------------------|--------------------------|
--------------------------|--------------------------|
--1--1--1--1--1--1--1--1--|--3--3--3--3--3--3--3--3--|
--------------------------|--------------------------|



--------------------------|--------------------------|-------------------------|
--------------------------|--------------------------|--5--5--3--3--2----------|
--3--3--3--3--3--3--3--3--|--5--5--5--5--5--5--5--5--|-------------------3--5--|
--------------------------|--------------------------|-------------------------|



-------------------------|--------------------------|--------------------------|
-------------------------|--------------------------|--------------------------|
----5--5--5--5--5--5--5--|--5--5--5--5--5--5--5--5--|--5--5--5--5--5--5--5--5--|
-------------------------|--------------------------|--------------------------|



--------------------------|--------------------------|
--------------------------|--------------------------|
--1--1--1--1--1--1--1--1--|--3--3--3--3--3--3--3--3--|
--------------------------|--------------------------|



--------------------------|--------------------------|------------------------|
--------------------------|--------------------------|------------------------|
--3--3--3--3--3--3--3--3--|--5--5--5--5--5--5--5--5--|--5--5--5--5----5--5----|
--------------------------|--------------------------|------------------------|



--------------------------|--------------------------|
--------5-----------3--5--|--------------------------|
--3--3-----3--3--3--------|--3--3--3--3--3--3--3--3--|
--------------------------|--------------------------|



--------------------------|--------------------------|
--------------------------|--------------------------|
--------------------------|-----------------------0--|
--3--3--3--3--3--3--3--3--|--3--3--3--3--3--3--3-----|



--------------------------|--------------------------|
--------------------------|--------------------------|
--1--1--1--1--1--1--1--1--|--1--1--1--1--1--1--1--1--|
--------------------------|--------------------------|



-----------------2--0-----|--2------------------|--------------------------|
-----------------------2--|-----------3--2------|--------------------------|
--0--0--0--0--0-----------|---------------------|--5--5--5--5--5--5--5--5--|
--------------------------|---------------------|--------------------------|



--------------------------|--------------------------|--------5----------5----|
--------------------------|--------------------------|------------------------|
--5--5--5--5--5--5--5--5--|--1--1--1--1--1--1--1--1--|--3--3-------3--3-------|
--------------------------|--------------------------|------------------------|



--------------------------|--------------------------|
--------------------------|--------------------------|
--5--5--5--5--5--5--5--5--|--5--5--5--5--5--5--5--5--|
--------------------------|--------------------------|



--------------------------|--------5----------5----|--------------------------|
--------------------------|------------------------|--------------------------|
--1--1--1--1--1--1--1--1--|--3--3-------3--3-------|--5--5--5--5--5--5--5--5--|
--------------------------|------------------------|--------------------------|



--------------------------|--------------------------|--------5----------5----|
--------------------------|--------------------------|------------------------|
--5--5--5--5--5--5--5--5--|--1--1--1--1--1--1--1--1--|--3--3-------3--3-------|
--------------------------|--------------------------|------------------------|



--------------------------|--------------------------|
--------------------------|--------------------------|
--5--5--5--5--5--5--5--5--|--5--5--5--5--5--5--5--5--|
--------------------------|--------------------------|



--------------------------|-----------------------|--------------------------|
--------------------------|-----------------------|--------------------------|
--1--1--1--1--1--1--1--1--|--3--3--3--3--3--------|--5--5--5--5--5--5--5--5--|
--------------------------|-----------------------|--------------------------|



--------------------------|--------------------------|
--------------------------|--------------------------|
--5--5--5--5--5--5--5--5--|--5--5--5--5--5--5--5--5--|
--------------------------|--------------------------|



--------------------------|-----------------------|--------------------|
--------------------------|-----------------------|--------------------|
--5--5--5--5--5--5--5--5--|-----------------------|--------------------|
--------------------------|--5--5--5--5--5--------|--5----5------------|



-----------------------|------------7--9--7-9-7--------|-----------------------|
-----------------------|--7--9--10--------------10--9--|-----------------------|
-----------------------|-------------------------------|-----------------------|
--5--5--5--5--5--------|-------------------------------|--3--3--3--3--3--------|



--------------------|-----------------------|--------4--5--7--5-7-5-4-----|
--------------------|-----------------------|--5--7--------------------7--|
--------------------|-----------------------|-----------------------------|
--3----3------------|--3--3--3--3--3--------|-----------------------------|



-----------------------|--------------------|-----------------------|
-----------------------|--------------------|-----------------------|
-----------------------|--------------------|-----------------------|
--1--1--1--1--1--------|--1----1------------|--1--1--1--1--1--------|



--------2--4--5--4-5-4-2--4--|------------------------|------------------------|
--3--5-----------------------|------------------------|------------------------|
-----------------------------|------------------------|------------------------|
-----------------------------|--3----3--3--3----3--3--|--3----3--3--3----3--3--|



--------------------------|--------------------------|
--------------------------|--------------------------|
--------------------------|--------------------------|
--0--0--0--0--0--0--0--0--|--0--0--0--0--0--0--0--0--|



--------------------------|-------------------------|--------------------------|
--------------------------|-------------------------|--------------------------|
--------------------------|-------------------------|--------------------------|
--5--5--5--5--5--5--5--1--|----1--1--1--1--1--1--1--|--3--3--3--3--3--3--3--0--|



-------------------------|--------------------------|--------------------------|
-------------------------|--------------------------|--------------------------|
-------------------------|--------------------------|--------------------------|
----0--0--0--0--0--0--0--|--1--1--1--1--1--1--1--1--|--3--3--3--3--3--3--3--3--|



--------------------------|--------------------------|-------------------------|
--------------------------|--------------------------|-------------------------|
--------------------------|-----------7--5--5--3-----|-------------------------|
--5--5--5--5--5--5--5--5--|--5--5--5--------------5--|----5--5--5--5--5--5--1--|



-------------------------|--------------------------|-------------------------|
-------------------------|--------------------------|-------------------------|
-------------------------|--------------------------|-------------------------|
----1--1--1--1--1--1--1--|--3--3--3--3--3--3--3--0--|----0--0--0--0--0--0--0--|



--------------------------|--------------------------|
--------------------------|--------------------------|
--3--3--3--3--3--3--3--3--|--5--5--5--5--5--5--5--5--|
--------------------------|--------------------------|



--------------------------|--------------------------|
--------------------------|--------------------------|
--------------------------|--------------------------|
--0--0--0--0--0--0--0--0--|--0--0--0--0--0--0--0--0--|



--------------------------|-------------------------|--------------------------|
--------------------2--3--|----3--3--3--3--3--3--3--|--------------------------|
--5--5--5--5--5--5--------|-------------------------|--3--3--3--3--3--3--3--3--|
--------------------------|-------------------------|--------------------------|



-------------------------|--------------------------|-------------------------|
-------5--5--------5--5--|--------------------2--3--|----3--3--3--3--3--3--3--|
----3--------3--3--------|--5--5--5--5--5--5--------|-------------------------|
-------------------------|--------------------------|-------------------------|



--------------------------|-------------------------|--------------------------|
--------------------------|-------------------5--5--|--------------------2--3--|
--3--3--3--3--3--3--3--3--|--3--3--3----3--3--------|--5--5--5--5--5--5--------|
--------------------------|-------------------------|--------------------------|



-------------------------|--------------------------|-------------------------|
----3--3--3--3--3--3--3--|--------------------------|-------5--5--------5--5--|
-------------------------|--3--3--3--3--3--3--3--3--|----3--------3--3--------|
-------------------------|--------------------------|-------------------------|



--------7----------------|-------------------------|--------------------------|
-------------------2--3--|----3--3--3--3--3--3--3--|--------------------------|
--5--5-------5--5--------|-------------------------|--3--3--3--3--3--3--3--3--|
-------------------------|-------------------------|--------------------------|



-------------------------|--------------------------|--------------------------|
-------------------5--5--|--------------------------|-----------------------3--|
--3--3--3----3--3--------|--5--5--5--5--5--5--5--5--|--5--5--5--5--5--5--5-----|
-------------------------|--------------------------|--------------------------|



--------------------------|--------------------------|
-----------------------3--|-----------------------3--|
--1--1--1--1--1--1--1-----|--3--3--3--3--3--3--3-----|
--------------------------|--------------------------|



--------------------------|--------------------------|
--------------------------|-----------------------3--|
--5--5--5--5--5--5--5--5--|--5--5--5--5--5--5--5-----|
--------------------------|--------------------------|



--------------------------|--------------------------|
-----------------------3--|-----------------------3--|
--1--1--1--1--1--1--1-----|--3--3--3--3--3--3--3-----|
--------------------------|--------------------------|



--------------------------|--------------------------|
--------------------------|-----------------------3--|
--5--5--5--5--5--5--5--5--|--5--5--5--5--5--5--5-----|
--------------------------|--------------------------|



--------------------------|--------------------------|
-----------------------3--|-----------------------3--|
--1--1--1--1--1--1--1-----|--3--3--3--3--3--3--3-----|
--------------------------|--------------------------|



--------------------------|--------------------------|
--------------------------|--------------------------|
--5--5--5--5--5--5--5--5--|--5--5--5--5--5--5--5--5--|
--------------------------|--------------------------|



--------------------------|---------------7/---|--------------------------|
--------------------------|--------------------|--------------------------|
--1--1--1--1--1--1--1--1--|--3-----------------|--5--5--5--5--5--5--5--5--|
--------------------------|--------------------|--------------------------|



--------------------------|--------------------------|--------5----------5----|
--------------------------|--------------------------|------------------------|
--5--5--5--5--5--5--5--5--|--5--5--5--5--5--5--5--5--|--3--3-------3--3-------|
--------------------------|--------------------------|------------------------|



--------------------------|--------------------------|
--------------------------|--------------------------|
--5--5--5--5--5--5--5--5--|--5--5--5--5--5--5--5--5--|
--------------------------|--------------------------|



--------------------------|--------5----------5----|--------------------------|
--------------------------|------------------------|--------------------------|
--5--5--5--5--5--5--5--5--|--3---3------3---3------|--5--5--5--5--5--5--5--5--|
--------------------------|------------------------|--------------------------|



--------------------------|--------------------------|--------5----------5----|
--------------------------|--------------------------|------------------------|
--5--5--5--5--5--5--5--5--|--5--5--5--5--5--5--5--5--|--3--3-------3--3-------|
--------------------------|--------------------------|------------------------|



--------------------------|--------------------------|
--------------------------|--------------------------|
--5--5--5--5--5--5--5--5--|--5--5--5--5--5--5--5--5--|
--------------------------|--------------------------|



--------------------------|-----------------------|--------------------------|
--------------------------|-----------------------|--------------------------|
--5--5--5--5--5--5--5--5--|--3--3--3--3--3--------|--7--7--7--7--7--7--7--7--|
--------------------------|-----------------------|--------------------------|



--------------------------|--------------------------|--------7----------7----|
--------------------------|--------------------------|------------------------|
--7--7--7--7--7--7--7--7--|--3--3--3--3--3--3--3--3--|--5--5-------5--5-------|
--------------------------|--------------------------|------------------------|



--------------------------|--------------------------|
--------------------------|--------------------------|
--7--7--7--7--7--7--7--7--|--7--7--7--7--7--7--7--7--|
--------------------------|--------------------------|



--------------------------|--------7----------7----|--------------------------|
--------------------------|------------------------|--------------------------|
--3--3--3--3--3--3--3--3--|--5--5-------5--5-------|--7--7--7--7--7--7--7--7--|
--------------------------|------------------------|--------------------------|



--------------------------|--------------------------|--------7----------7----|
--------------------------|--------------------------|------------------------|
--7--7--7--7--7--7--7--7--|--3--3--3--3--3--3--3--3--|--5--5-------5--5-------|
--------------------------|--------------------------|------------------------|



--------------------------|--------------------------|
--------------------------|--------------------------|
--7--7--7--7--7--7--7--7--|--7--7--7--7--7--7--7--7--|
--------------------------|--------------------------|



--------------------------|--------7----------7----|--------------------|
--------------------------|------------------------|--------------------|
--3--3--3--3--3--3--3--3--|--5--5-------5--5-------|--7--7--------------|
--------------------------|------------------------|--------------------|



--------------------|----------||
--------------------|----------||
--------------------|----------||
--0--0--------------|----------||
  development and support by
dmitry ivanov