rock
 
|tablatures   |lyrics   |discussion forums   |more tabs @ XGuitar.com

Helloween tabs

I Can bass tab

G||------------------|------------------|------------------|------------------|
D||------------------|------------------|------------------|------------------|
A||------------------|------------------|------------------|------------------|
E||------------------|------------------|------------------|------------------|



------------------|------------------|------------------|------------------|
------------------|------------------|------------------|------------------|
------------------|------------------|------------------|------------------|
------------------|------------------|------------------|------------------|



------------------|------------------|------------------|------------------|
------------------|------------------|------------------|------------------|
------------------|------------------|------------------|------------------|
------------------|------------------|------------------|------------------|



--------------------|--------------------|--------------------|
--------------------|--------------------|--------------------|
--------------------|-----------------3--|--5-----------------|
--5--------------0--|--1-----------------|-----------------0--|



--------------------|-------------------|--------------------------|
--------------------|-------------------|--2--3--0--2-----0--------|
--------------------|-------------------|--------------3-----2--3--|
--1--------3--------|--5----------------|--------------------------|



-----------x/--------|--------------------|--------------------|
---------------------|--------------------|--------------------|
--------x/------x----|-----------------3--|--5-----------------|
---------------------|--1-----------------|-----------------0--|



--------------------|-------------------|--------------------------|
--------------------|-------------------|--2--3--0--2-----0--------|
--------------------|-------------------|--------------3-----2--3--|
--1--------3--------|--5----------------|--------------------------|



--------------------------|--------------------------|
--------------------------|--------------------------|
--------------------------|-----------------------3--|
--5--5--5--3--5--5--5--0--|--1--1--1--0--1--1--1-----|



--------------------------|--------------------------|
-----------3--------------|--------------------------|
--5--5--5-----5--5--5-----|--------------------------|
-----------------------0--|--1--1--1--1--3--3--3--3--|



--------------------------|--------------------------|
--------------------------|--2--3--0--2-----0--------|
--------------------------|--------------3-----2--3--|
--5--5--5--5--5--5--5--5--|--------------------------|



--------------------------|--------------------------|
--------------------------|--------------------------|
--------------------------|--------------------------|
--5--5--5--5--5--5--5--5--|--5--5--5--5--5--5--5--5--|



--------------------------|--------------------------|
--------------------------|--------------------------|
--------------------------|--------------------------|
--5--5--5--5--5--5--5--5--|--5--5--5--5--3--3--3--3--|



--------------------------|--------------------------|
--------------------------|--------------------------|
--------------------------|--------------------------|
--5--5--5--5--5--5--5--5--|--5--5--5--5--5--5--5--5--|



--------------------------|--------------------------|
--------------------------|--------------------------|
--------------------------|--------------------------|
--3--3--3--3--3--3--3--3--|--1--1--1--1--3--3--3--3--|



--------------------------|--------------------------|
--------------------------|--------------------------|
--------------------------|--------------------------|
--5--5--5--5--5--5--5--5--|--5--5--5--5--5--5--5--5--|



--------------------------|--------------------------|
--------------------------|--------------------------|
--------------------------|--------------------------|
--5--5--5--3--3--3--3--3--|--1--1--1--1--3--3--3--3--|



--------------------------|--------------------------|
--------------------------|--------------------------|
--------------------------|--------------------------|
--5--5--5--5--5--5--5--5--|--5--5--5--5--5--5--5--5--|



--------------------------|--------------------------|------------------------|
--------------------------|--------------------------|------------------3--5s-|
--------------------------|--------------------------|---------------3--------|
--3--3--3--3--3--3--3--3--|--1--1--1--1--3--3--3--3--|--1----1----1-----------|



-------------------------|-------------------------|-------------------------|
----5--3--3--2--2--0--0--|-------------------------|-------------------------|
-------------------------|-----5--5-------2--5--7s-|----7--5--5--3--3--2--2--|
-------------------------|--3----------3-----------|-------------------------|



------------------------|-------------------------|------------------------|
------------------------|-------------------------|------------------3--5s-|
------------------5--7--|----7--5--5--3--3--2--2--|---------------3--------|
--0----0----0--7--------|-------------------------|--1----1----1-----------|



-------------------------|-------------------------|-------------------------|
----5--3--3--2--2--0--0--|-------------------------|-------------------------|
-------------------------|----------------2--5--7s-|----7--5--5--3--3--2--2--|
-------------------------|--3--3--3----3-----------|-------------------------|



-----------------------|------------------|--------------------------|
-----------------------|------------------|--------------------------|
------------7s---5/-7--|------------------|--------------------------|
--0----0---------------|------------------|--5--5--5--3--5--5--5--0--|



--------------------------|--------------------------|
--------------------------|-----------3--------------|
-----------------------3--|--5--5--5-----5--5--5-----|
--1--1--1--0--1--1--1-----|-----------------------0--|



--------------------------|--------------------------|
--------------------------|--------------------------|
--------------------------|--------------------------|
--1--1--1--1--3--3--3--3--|--5--5--5--3--5--5--5--0--|



--------------------------|--------------------------|-----------------------|
--------------------------|-----------3--------------|-----------------------|
-----------------------3--|--5--5--5-----5--5--5--5--|-----------------------|
--1--1--1--0--1--1--1-----|--------------------------|--0--0--0----0----0----|



--------------------------|--------------------------|
--------------------------|--------------------------|
--------------------------|-----------------------3--|
--5--5--5--3--5--5--5--0--|--1--1--1--0--1--1--1-----|



--------------------------|--------------------------|
-----------3--------------|--------------------------|
--5--5--5-----5--5--5-----|--------------------------|
-----------------------0--|--1--1--1--1--3--3--3--3--|



--------------------------|--------------------------|
--------------------------|--------------------------|
--------------------------|-----------------------3--|
--5--5--5--3--5--5--5--0--|--1--1--1--0--1--1--1-----|



--------------------------|--------------------------|-------------------------|
-----------3--------------|--------------------------|--7--7--7/---7--7--7-----|
--5--5--5-----5--5--5--5--|--7--7--5--5--------------|----------------------7--|
--------------------------|--------------8--8--7--7--|-------------------------|



-------------------------|---------------------------|
-------------------------|-------------3-------------|
--8--8--8/---8--8--8--7--|--5--5--5--5---5--5--5-----|
-------------------------|------------------------0--|



----------------------------|--------------------------|
----------------------------|--------------------------|
----------------------------|--------------------------|
--1--1--1--1-1-3--3--3--3-3-|--5--5--5--5--5--5--5--5--|



--------------------------|--------------------------|
--2--3--0--2-----0--------|--------------------------|
--------------3-----2--3--|--------------------------|
--------------------------|--5--5--5--5--5--5--5--5--|



--------------------------|--------------------------|
--------------------------|--------------------------|
--------------------------|--------------------------|
--5--5--5--5--5--5--5--5--|--5--5--5--5--5--5--5--5--|



--------------------------|--------------------------|
--------------------------|--------------------------|
--------------------------|--------------------------|
--5--5--5--5--3--3--3--3--|--5--5--5--5--5--5--5--5--|



--------------------------|--------------------------|
--------------------------|--------------------------|
--------------------------|--------------------------|
--5--5--5--5--5--5--5--5--|--3--3--3--3--3--3--3--3--|



--------------------------|--------------------------|
--------------------------|--------------------------|
--------------------------|--------------------------|
--1--1--1--1--3--3--3--3--|--5--5--5--5--5--5--5--5--|



--------------------------|--------------------------|
--------------------------|--------------------------|
--------------------------|--------------------------|
--5--5--5--5--5--5--5--5--|--5--5--5--3--3--3--3--3--|



--------------------------|--------------------------|
--------------------------|--------------------------|
--------------------------|--------------------------|
--1--1--1--1--3--3--3--3--|--5--5--5--5--5--5--5--5--|



--------------------------|--------------------------|
--------------------------|--------------------------|
--------------------------|--------------------------|
--5--5--5--5--5--5--5--5--|--3--3--3--3--3--3--3--3--|



--------------------------|------------------------|-------------------------|
--------------------------|------------------3/-5--|----5--3--3--2--2--0--0--|
--------------------------|---------------3--------|-------------------------|
--1--1--1--1--3--3--3--3--|--1----1----1-----------|-------------------------|



-------------------------|-------------------------|------------------------|
-------------------------|-------------------------|------------------------|
-----5--5-------2--5--7s-|----7--5--5--3--3--2--2--|------------------5--7--|
--3----------3-----------|-------------------------|--0----0----0--7--------|



-------------------------|------------------------|-------------------------|
-------------------------|------------------3--5s-|----5--3--3--2--2--0--0--|
----7--5--5--3--3--2--2--|---------------3--------|-------------------------|
-------------------------|--1----1----1-----------|-------------------------|



-------------------------|-------------------------|-----------------------|
-------------------------|-------------------------|-----------------------|
----------------2--5--7s-|----7--5--5--3--3--2--2--|------------7s---5/-7--|
--3--3--3----3-----------|-------------------------|--0----0---------------|



------------------|--------------------------|--------------------------|
------------------|--------------------------|--------------------------|
------------------|--------------------------|-----------------------3--|
------------------|--5--5--5--3--5--5--5--0--|--1--1--1--0--1--1--1-----|



--------------------------|--------------------------|
-----------3--------------|--------------------------|
--5--5--5-----5--5--5-----|--------------------------|
-----------------------0--|--1--1--1--1--3--3--3--3--|



--------------------------|--------------------------|
--------------------------|--------------------------|
--------------------------|-----------------------3--|
--5--5--5--3--5--5--5--0--|--1--1--1--0--1--1--1-----|



--------------------------|-----------------------|--------------------------|
-----------3--------------|-----------------------|--------------------------|
--5--5--5-----5--5--5--5--|-----------------------|--------------------------|
--------------------------|--0--0--0----0----0----|--5--5--5--3--5--5--5--0--|



--------------------------|--------------------------|
--------------------------|-----------3--------------|
-----------------------3--|--5--5--5-----5--5--5-----|
--1--1--1--0--1--1--1-----|-----------------------0--|



--------------------------|--------------------------|
--------------------------|--------------------------|
--------------------------|--------------------------|
--1--1--1--1--3--3--3--3--|--5--5--5--3--5--5--5--0--|



--------------------------|--------------------------|
--------------------------|-----------3--------------|
-----------------------3--|--5--5--5-----5--5--5--5--|
--1--1--1--0--1--1--1-----|--------------------------|



--------------------------|-------------------------|-------------------------|
--------------------------|--7--7--7/---7--7--7-----|-------------------------|
--7--7--5--5--------------|----------------------7--|--8--8--8/---8--8--8--7--|
--------------8--8--7--7--|-------------------------|-------------------------|



---------------------------|----------------------------|
-------------3-------------|----------------------------|
--5--5--5--5---5--5--5-----|----------------------------|
------------------------0--|--1--1--1--1-1-3--3--3--3-3-|



--------------------------|--------------------------|---------------------|
--------------------------|--2--3--0--2-----0--------|---------------------|
--------------------------|--------------3-----2--3--|---------------------|
--5--5--5--5--5--5--5--5--|--------------------------|--5----5------3------|



-------------------|--------------------|-------------------|
-------------------|--------------------|-------------------|
-------------------|--------------------|-------------------|
--1----------------|------5------3------|--1----------------|



--------------------|-------------------|--------------------|
--------------------|-------------------|--------------------|
--------------------|-------------------|--------------------|
------5------3------|--1----------------|------5------3------|



-------------------|-------------------|--------------------------|
-------------------|-------------------|--------------------------|
-------------------|-------------------|--3--3--3--3--3--3--3--3--|
--1----------------|--1----------------|--------------------------|



--------------------------|--------------------------|
--------------------------|--------------------------|
--2--2--2--2--2--2--2--2--|--------------------------|
--------------------------|--5--5--5--5--5--5--5--5--|



--------------------------|--------------------------|
--------------------------|--------------------------|
--------------------------|--------------------------|
--3--3--3--3--3--3--3--3--|--1--1--1--1--1--1--1--1--|



--------------------------|--------------------------|----------------------|
--------------------------|--------------------------|--5--5--5-------------|
--------------------------|--------------------------|----------------------|
--5--5--5--5--5--5--5--5--|--3--3--3--3--3--3--3--3--|-------------3/-------|



--------------------------|--------------------------|
--------------------------|--------------------------|
--------------------------|--------------------------|
--1--1--1--1--1--1--1--1--|--3--3--3--3--3--3--3--3--|



--------------------------|--------------------------|
--------------------------|--------------------------|
--3--3--3--3--3--3--3--3--|--------------------------|
--------------------------|--5--5--5--5--5--5--5--5--|



--------------------------|--------------------------|
--------------------------|--------------------------|
--5--5--5--5--5--5--5--5--|--5--5--5--5--5--5--5--7--|
--------------------------|--------------------------|



--------------------------|----------------------|------------------------|
--5--5--5--5--5--5--5--5--|--5-------------------|------------------3/-5--|
--------------------------|-------5----3---------|---------------3--------|
--------------------------|-----------------3----|--1----1----1-----------|



-------------------------|-------------------------|-------------------------|
----5--3--3--2--2--0--0--|-------------------------|-------------------------|
-------------------------|-----5--5-------2--5--7s-|----7--5--5--3--3--2--2--|
-------------------------|--3----------3-----------|-------------------------|



------------------------|-------------------------|------------------------|
------------------------|-------------------------|------------------3--5s-|
------------------5--7--|----7--5--5--3--3--2--2--|---------------3--------|
--0----0----0--7--------|-------------------------|--1----1----1-----------|



-------------------------|-------------------------|-------------------------|
----5--3--3--2--2--0--0--|-------------------------|-------------------------|
-------------------------|----------------2--5--7s-|----7--5--5--3--3--2--2--|
-------------------------|--3--3--3----3-----------|-------------------------|



-----------------------|------------------|--------------------------|
-----------------------|------------------|--------------------------|
------------7s---5/-7--|------------------|--------------------------|
--0----0---------------|------------------|--5--5--5--3--5--5--5--0--|



--------------------------|--------------------------|
--------------------------|-----------3--------------|
-----------------------3--|--5--5--5-----5--5--5-----|
--1--1--1--0--1--1--1-----|-----------------------0--|



--------------------------|--------------------------|
--------------------------|--------------------------|
--------------------------|--------------------------|
--1--1--1--1--3--3--3--3--|--5--5--5--3--5--5--5--0--|



--------------------------|--------------------------|-----------------------|
--------------------------|-----------3--------------|-----------------------|
-----------------------3--|--5--5--5-----5--5--5--5--|-----------------------|
--1--1--1--0--1--1--1-----|--------------------------|--0--0--0----0----0----|



--------------------------|--------------------------|
--------------------------|--------------------------|
--------------------------|-----------------------3--|
--5--5--5--3--5--5--5--0--|--1--1--1--0--1--1--1-----|



--------------------------|--------------------------|
-----------3--------------|--------------------------|
--5--5--5-----5--5--5-----|--------------------------|
-----------------------0--|--1--1--1--1--3--3--3--3--|



--------------------------|--------------------------|
--------------------------|--------------------------|
--------------------------|-----------------------3--|
--5--5--5--3--5--5--5--0--|--1--1--1--0--1--1--1-----|



--------------------------|--------------------------|-------------------------|
-----------3--------------|--------------------------|--7--7--7/---7--7--7-----|
--5--5--5-----5--5--5--5--|--7--7--5--5--------------|----------------------7--|
--------------------------|--------------8--8--7--7--|-------------------------|



-------------------------|---------------------------|
-------------------------|-------------3-------------|
--8--8--8/---8--8--8--7--|--5--5--5--5---5--5--5-----|
-------------------------|------------------------0--|



----------------------------|--------------------------|
----------------------------|--------------------------|
----------------------------|--------------------------|
--1--1--1--1-1-3--3--3--3-3-|--5--5--5--5--5--5--5--5--|



--------------------------|---------------------|-------------------|
--2--3--0--2-----0--------|---------------------|-------------------|
--------------3-----2--3--|---------------------|-------------------|
--------------------------|--5----5------5------|--1----------------|



--------------------|-------------------|--------------------|
--------------------|-------------------|--------------------|
--------------------|-------------------|--------------------|
------5------3------|--1----------------|------5------3------|



-------------------5----|-----------10/12----10----|-------------10----------|
--------------3---------|--3-----------------------|-------10----------10----|
------------------------|--------------------------|--8----------------------|
--1/-13----1------------|-------1------------------|-------------------------|



---------------------||
-------10------------||
--8------------------||
---------------------||
  development and support by
dmitry ivanov