rock
 
|tablatures   |lyrics   |discussion forums   |more tabs @ XGuitar.com

Helloween tabs

How Many Tears bass tab

G||------------------|------------------|------------------|------------------|
D||------------------|------------------|------------------|------------------|
A||------------------|------------------|------------------|------------------|
E||------------------|------------------|------------------|------------------|



------------------|------------------|--------------------|
------------------|------------------|---------2----------|
------------------|------------------|--------------------|
------------------|------------------|--0-----------------|



----------------------------------|----------------------------------|
--2-2-2-2-2-2-2-2-2-2-2-2-2-2-2-2-|--2-2-2-2-2-2-2-2-2-2-2-2-2-2-2-2-|
----------------------------------|----------------------------------|
----------------------------------|----------------------------------|



----------------------------------|--0--------0--------------|
--0-0-0-0-0-0-0-0-0-0-0-0-0-0-0-0-|--------4--------4--0--1--|
----------------------------------|--------------------------|
----------------------------------|--------------------------|



----------------------------------|----------------------------------|
--2-2-2-2-2-2-2-2-2-2-2-2-2-2-2-2-|--2-2-2-2-2-2-2-2-2-2-2-2-2-2-2-2-|
----------------------------------|----------------------------------|
----------------------------------|----------------------------------|



----------------------------------|--0--------0--------------|
--0-0-0-0-0-0-0-0-0-0-0-0-0-0-0-0-|--------4--------4--0--1--|
----------------------------------|--------------------------|
----------------------------------|--------------------------|



----------------------------------|----------------------------------|
--2-2-2-2-2-2-2-2-2-2-2-2-2-2-2-2-|--2-2-2-2-2-2-2-2-2-2-2-2-2-2-2-2-|
----------------------------------|----------------------------------|
----------------------------------|----------------------------------|



----------------------------------|--0--------0--------------|
--0-0-0-0-0-0-0-0-0-0-0-0-0-0-0-0-|--------4--------4--0--1--|
----------------------------------|--------------------------|
----------------------------------|--------------------------|



----------------------------------|----------------------------------|
--2-2-2-2-2-2-2-2-2-2-2-2-2-2-2-2-|--2-2-2-2-2-2-2-2-2-2-2-2-2-2-2-2-|
----------------------------------|----------------------------------|
----------------------------------|----------------------------------|



--------------------------|----------------------------------|
--------------------------|--2-2-2-2-2-2-2-2-2-2-2-2-2-2-2-2-|
--3--2--0-----------------|----------------------------------|
-----------3--2--2-----2--|----------------------------------|



--------------------------|----------------------------------|
--0-----0--0-----0--0--1--|--2-2-2-2-2-2-2-2-2-2-2-2-2-2-2-2-|
--------------------------|----------------------------------|
--------------------------|----------------------------------|



----------------------------------|----------------------------------|
--2-2-2-2-2-2-2-2-2-2-2-2-2-2-2-2-|--0-0-0-0-0-0-0-0-0-0-0-0-0-0-0-0-|
----------------------------------|----------------------------------|
----------------------------------|----------------------------------|



--0--------0--------------|----------------------------------|
--------4--------4--0--1--|--2-2-2-2-2-2-2-2-2-2-2-2-2-2-2-2-|
--------------------------|----------------------------------|
--------------------------|----------------------------------|



----------------------------------|--------------------------|
--2-2-2-2-2-2-2-2-2-2-2-2-2-2-2-2-|--------------------------|
----------------------------------|--3--2--0-----------------|
----------------------------------|-----------3--2--2-----2--|



----------------------------------|--------------------------|
--2-2-2-2-2-2-2-2-2-2-2-2-2-2-2-2-|--0-----0--0-----2--0-----|
----------------------------------|-----------------------3--|
----------------------------------|--------------------------|



----------------------------------|--------------2-----0--------|
----------------------------------|-----------------------4--0--|
--2-2-2-2-2-2-2-2-2-2-2-2-2-2-2-2-|--2-2-2-2-2-2----------------|
----------------------------------|-----------------------------|



----------------------------------|--------------4-----4--2--0--|
--2-2-2-2-2-2-2-2-2-2-2-2-2-2-2-2-|--2-2-2-2-2-2----------------|
----------------------------------|-----------------------------|
----------------------------------|-----------------------------|



----------------------------------|------------------2--0--------|
----------------------------------|------------------------4--0--|
--2-2-2-2-2-2-2-2-2-2-2-2-2-2-2-2-|--2-2-2-2-2-2-2-2-------------|
----------------------------------|------------------------------|



----------------------------------|--------------5-----4--2--0--|
--2-2-2-2-2-2-2-2-2-2-2-2-2-2-2-2-|--2-2-2-2-2-2----------------|
----------------------------------|-----------------------------|
----------------------------------|-----------------------------|



----------------------------------|--------------2-----0--------|
----------------------------------|-----------------------4--0--|
--2-2-2-2-2-2-2-2-2-2-2-2-2-2-2-2-|--2-2-2-2-2-2----------------|
----------------------------------|-----------------------------|



----------------------------------|----------------------------------|
--2-2-2-2-2-2-2-2-2-2-2-2-2-2-2-2-|--2-2-2-2-2-2-2-2-2-2-2-2-2-2-2-2-|
----------------------------------|----------------------------------|
----------------------------------|----------------------------------|



----------------------------------|----------------------------------|
----------------------------------|----------------------------------|
--3-3-3-3-3-3-3-3-3-3-3-3-3-3-3-3-|--3-3-3-3-3-3-3-3-3-3-3-3-3-3-3-3-|
----------------------------------|----------------------------------|



--4----2--4--0--2-----0--|-------------------|-------------------|
-------------------4-----|-------------------|-------------------|
-------------------------|--2----------------|--2----------------|
-------------------------|-------------------|-------------------|



----------------------------------|----------------------------------|
--2-2-2-2-2-2-2-2-2-2-2-2-2-2-2-2-|--2-2-2-2-2-2-2-2-2-2-2-2-2-2-2-2-|
----------------------------------|----------------------------------|
----------------------------------|----------------------------------|



----------------------------------|--0--------0--------------|
--0-0-0-0-0-0-0-0-0-0-0-0-0-0-0-0-|--------4--------4--0--1--|
----------------------------------|--------------------------|
----------------------------------|--------------------------|



----------------------------------|----------------------------------|
--2-2-2-2-2-2-2-2-2-2-2-2-2-2-2-2-|--2-2-2-2-2-2-2-2-2-2-2-2-2-2-2-2-|
----------------------------------|----------------------------------|
----------------------------------|----------------------------------|



--------------------------|----------------------------------|
--------------------------|--2-2-2-2-2-2-2-2-2-2-2-2-2-2-2-2-|
--3--2--0-----------------|----------------------------------|
-----------3--2--2-----2--|----------------------------------|



--------------------------|----------------------------------|
--0-----0--0-----0--0--1--|--2-2-2-2-2-2-2-2-2-2-2-2-2-2-2-2-|
--------------------------|----------------------------------|
--------------------------|----------------------------------|



----------------------------------|----------------------------------|
--2-2-2-2-2-2-2-2-2-2-2-2-2-2-2-2-|--0-0-0-0-0-0-0-0-0-0-0-0-0-0-0-0-|
----------------------------------|----------------------------------|
----------------------------------|----------------------------------|



--0--------0--------------|----------------------------------|
--------4--------4--0--1--|--2-2-2-2-2-2-2-2-2-2-2-2-2-2-2-2-|
--------------------------|----------------------------------|
--------------------------|----------------------------------|



----------------------------------|--------------------------|
--2-2-2-2-2-2-2-2-2-2-2-2-2-2-2-2-|--------------------------|
----------------------------------|--3--2--0-----------------|
----------------------------------|-----------3--2--2-----2--|



----------------------------------|--------------------------|
--2-2-2-2-2-2-2-2-2-2-2-2-2-2-2-2-|--0-----0--0-----2--0-----|
----------------------------------|-----------------------3--|
----------------------------------|--------------------------|



----------------------------------|--------------2-----0--------|
----------------------------------|-----------------------4--0--|
--2-2-2-2-2-2-2-2-2-2-2-2-2-2-2-2-|--2-2-2-2-2-2----------------|
----------------------------------|-----------------------------|



----------------------------------|--------------4-----4--2--0--|
--2-2-2-2-2-2-2-2-2-2-2-2-2-2-2-2-|--2-2-2-2-2-2----------------|
----------------------------------|-----------------------------|
----------------------------------|-----------------------------|



----------------------------------|------------------2--0--------|
----------------------------------|------------------------4--0--|
--2-2-2-2-2-2-2-2-2-2-2-2-2-2-2-2-|--2-2-2-2-2-2-2-2-------------|
----------------------------------|------------------------------|



----------------------------------|--------------5-----4--2--0--|
--2-2-2-2-2-2-2-2-2-2-2-2-2-2-2-2-|--2-2-2-2-2-2----------------|
----------------------------------|-----------------------------|
----------------------------------|-----------------------------|



----------------------------------|--------------2-----0--------|
----------------------------------|-----------------------4--0--|
--2-2-2-2-2-2-2-2-2-2-2-2-2-2-2-2-|--2-2-2-2-2-2----------------|
----------------------------------|-----------------------------|



----------------------------------|----------------------------------|
--2-2-2-2-2-2-2-2-2-2-2-2-2-2-2-2-|--2-2-2-2-2-2-2-2-2-2-2-2-2-2-2-2-|
----------------------------------|----------------------------------|
----------------------------------|----------------------------------|



----------------------------------|----------------------------------|
----------------------------------|----------------------------------|
--3-3-3-3-3-3-3-3-3-3-3-3-3-3-3-3-|--3-3-3-3-3-3-3-3-3-3-3-3-3-3-3-3-|
----------------------------------|----------------------------------|



--4----2--4--0--2-----0--|-------------9------|---------------------0--------|
-------------------4-----|--------------------|---------------------------0--|
-------------------------|--2-----------------|--7-7-7-7-7-7-7-7-7-----------|
-------------------------|--------------------|------------------------------|



---------------------0--------|----------------------------------|
--2-2-2-2-2-2-2-2-2--------0--|----------------------------------|
------------------------------|--3-3-3-3-3-3-3-3-3-3-3-3-3-3-3-3-|
------------------------------|----------------------------------|



----------------------------|----------------------------------|
----------------------------|----------------------------------|
--3-3-3-3-3-3-3-3-2---------|--0-0-0-0-0-0-0-0-0-0-0-0-0-0-0-0-|
-------------------------3--|----------------------------------|



----------------------------------|----------------------------------|
----------------------------------|----------------------------------|
--0-0-0-0-0-0-0-0-0-0-0-0-0-0-0-0-|--3-3-3-3-3-3-3-3-3-3-3-3-3-3-3-3-|
----------------------------------|----------------------------------|



----------------------------------|----------------------------------|
----------------------------------|----------------------------------|
--2-2-2-2-2-2-2-2-2-2-2-2-2-2-2-2-|--3-3-3-3-3-3-3-3-3-3-3-3-3-3-3-3-|
----------------------------------|----------------------------------|



----------------------------------|----------------------------------|
--0-0-0-0-0-0-0-0-0-0-0-0-0-0-0-0-|----------------------------------|
----------------------------------|--2-2-2-2-2-2-2-2-2-2-2-2-2-2-2-2-|
----------------------------------|----------------------------------|



------------------14--12--11------|----------------------------------|
--2-2-2-2-2-2-2-2-------------12--|----------------------------------|
----------------------------------|----------------------------------|
----------------------------------|--8-8-8-8-8-8-8-8-8-8-8-8-8-8-8-8-|



----------------------------------|--------------------------------|
--0-0-0-0-0-0-0-0-0-0-0-0-0-0-0-0-|--------------------------------|
----------------------------------|--2-2-2-2-2-2-2-2-2-2-2-2-------|
----------------------------------|--------------------------3--2--|



---------------14--12--11------|----------------------------------|
--------9--10--------------12--|----------------------------------|
-------------------------------|----------------------------------|
--0----------------------------|--8-8-8-8-8-8-8-8-8-8-8-8-8-8-8-8-|



----------------------------------|------------------------------|
--0-0-0-0-0-0-0-0-0-0-0-0-0-0-0-0-|------------------------------|
----------------------------------|--2-2-2-2-2-2-2-2-2--0--------|
----------------------------------|------------------------3--2--|



--------------------------------|----------------------------------|
--2-2-2-2-2-2-2-2-2-2-2-2-0-----|----------------------------------|
--------------------------------|--3-3-3-3-3-3-3-3-3-3-3-3-3-3-3-3-|
--------------------------------|----------------------------------|



----------------------------------|----------------------------------|
--0-0-0-0-0-0-0-0-0-0-0-0-0-0-0-0-|----------------------------------|
----------------------------------|--2-2-2-2-2-2-2-2-2-2-2-2-2-2-2-2-|
----------------------------------|----------------------------------|



--------------------|----------------------------------|-------------------|
--------------------|--2-2-2-2-2-2-2-2-2-2-2-2-2-2-2-2-|--2----------------|
--------------------|----------------------------------|-------------------|
--0-----------------|----------------------------------|-------------------|



----------------------------------|----------------------------------|
--2-2-2-2-2-2-2-2-2-2-2-2-2-2-2-2-|----------------------------------|
----------------------------------|--2-2-2-2-2-2-2-2-2-2-2-2-2-2-2-2-|
----------------------------------|----------------------------------|



----------------------------------|----------------------------------|
--2-2-2-2-2-2-2-2-2-2-2-2-2-2-2-2-|----------------------------------|
----------------------------------|--2-2-2-2-2-2-2-2-2-2-2-2-2-2-2-2-|
----------------------------------|----------------------------------|



----------------------------------|--2-2-2-2-2-2-2-2-5-5-5-5-5-5-5-5-|
--0-0-0-0-0-0-0-0-4-4-4-4-4-4-4-4-|----------------------------------|
----------------------------------|----------------------------------|
----------------------------------|----------------------------------|



--14--11--11--11--8--------------|------------------------|
---------------------10--10--10--|--7---------------------|
---------------------------------|-----9--9--9--6---------|
---------------------------------|-----------------8------|



---------------------------------|---------------------------------|
-------0----0--0--0--0--0--0--0--|--2----0----0--0--0--0--0--0--0--|
--7------------------------------|---------------------------------|
---------------------------------|---------------------------------|



---------------------------------|---------------------------------|
--2----0----0--0--0--0--0--0--0--|--2----0----0--0--0--0--0--0--0--|
---------------------------------|---------------------------------|
---------------------------------|---------------------------------|



--------------------------------|--------------------------------|
--------------------------------|--------------------------------|
--3-3-3-3-3-3-3-3-3-3-3-3-2--0--|--0-0-0-0-0-0-0-0-0-0-0-0-0-----|
--------------------------------|-----------------------------3--|



--------------------------------|--------------------------|
--------------------------------|--------------------0--0--|
--0-0-0-0-0-0-0-0-0-0-0-0-------|--2--0--------------------|
--------------------------3--2--|--------3--2--3--3--------|



--------------------------------|--------------------------------|
--------------------------------|--------------------------------|
--3-3-3-3-3-3-3-3-3-3-3-3-2--0--|--0-0-0-0-0-0-0-0-0-0-0-0-0-----|
--------------------------------|-----------------------------3--|



--------------------------------|--------------------------|
--------------------------------|--------------------0--0--|
--0-0-0-0-0-0-0-0-0-0-0-0-------|--2--0--------------------|
--------------------------3--2--|--------3--2--3--3--------|



----------0-0-2-2-------------0-0-|------------------|-----------------------|
--2-2-4-4---------0-0-2-2-4-4-----|------0-0-2-2-4-4-|--------------------0--|
----------------------------------|--3-3-------------|--3------------3-------|
----------------------------------|------------------|-----------------------|



----------0-0-2-2-------------0-0-|------------------|-----------------------|
--2-2-4-4---------0-0-2-2-4-4-----|------0-0-2-2-4-4-|--0------------0----1--|
----------------------------------|--3-3-------------|-----------------------|
----------------------------------|------------------|-----------------------|



---------14-12-11----------12----------------|--------------------|
----9-14----------12-13-14----14--12-14------|--------------------|
--7--------------------------------------14--|--------------------|
---------------------------------------------|--12----------------|



--------------------------|------------------------|-------------------------|
--------------------------|--0-----4--0------------|--------2---2-0----------|
-----------7------------3-|-------------2------0-2-|--3-------3----------2-5-|
--12-----7---7-8------3---|------------------------|-------------------------|



---------12-12-11----------14-11----------|--------------------------|
----9-14----------12-13-14--------12--12--|--------------------------|
--7---------------------------------------|-----------7------------3-|
------------------------------------------|--12-----7---7-8------3---|



------------------------|-------------------------------|
--0-----4--0------------|--------0-2-------2-0--------0-|
-------------2------0-2-|--3---------0-2-3----------2---|
------------------------|-------------------------------|



---------0-2-2------7-9-----|---------7--4-----|--------5--------|
--2-4-4---------------------|------------------|-----------------|
----------------------------|--7---------------|--3--------------|
----------------------------|------------------|-----------------|



---------------|--4-----------4-----|---------------|---------------|
---------------|--------4-----------|---------------|--0------------|
--5------------|--------------------|--3------------|---------------|
---------------|--------------------|---------------|---------------|



--------------------|--------------------|---------------|---------------|
--------------------|--------------------|---------------|--0------------|
--2--2--2--2--2--2--|--2--2--2--2--2--2--|--3------------|---------------|
--------------------|--------------------|---------------|---------------|



--------------------|--------------------|--------------------|
--------------------|--------------------|-----0--2-----------|
--2--3--2--0--------|--------2-----------|--3--------3--0-----|
--------------3--2--|--0-----------0-----|--------------------|



--4------2--0-----|--------------------|-------------------|------------------|
------------------|-----0--2-----------|-------------------|------------------|
------------------|--3--------3--2--0--|-------------------|------------------|
------------------|--------------------|--0----------------|------------------|



------------------|------------------|------------------|------------------|
------------------|------------------|------------------|------------------|
------------------|------------------|------------------|------------------|
------------------|------------------|------------------|------------------|



------------------|------------------|------------------|------------------|
------------------|------------------|------------------|------------------|
------------------|------------------|------------------|------------------|
------------------|------------------|------------------|------------------|



------------------|------------------|------------------|------------------|
------------------|------------------|------------------|------------------|
------------------|------------------|------------------|------------------|
------------------|------------------|------------------|------------------|



------------------|------------------|------------------|------------------|
------------------|------------------|------------------|------------------|
------------------|------------------|------------------|------------------|
------------------|------------------|------------------|------------------|



------------------|--------------------|----------------------------------|
------------------|--------------2-----|--2-2-2-2-2-2-2-2-2-2-2-2-2-2-2-2-|
------------------|--------------------|----------------------------------|
------------------|--------------------|----------------------------------|



----------------------------------|----------------------------------|
--2-2-2-2-2-2-2-2-2-2-2-2-2-2-2-2-|--2-2-2-2-2-2-2-2-2-2-2-2-2-2-2-2-|
----------------------------------|----------------------------------|
----------------------------------|----------------------------------|



----------------------------------|----------------------------------|
--2-2-2-2-2-2-2-2-2-2-2-2-2-2-2-2-|--0-0-0-0-0-0-0-0-0-0-0-0-0-0-0-0-|
----------------------------------|----------------------------------|
----------------------------------|----------------------------------|



--0--------0--------------|----------------------------------|
--------4--------4--0--1--|--2-2-2-2-2-2-2-2-2-2-2-2-2-2-2-2-|
--------------------------|----------------------------------|
--------------------------|----------------------------------|



----------------------------------|----------------------------------|
--2-2-2-2-2-2-2-2-2-2-2-2-2-2-2-2-|--0-0-0-0-0-0-0-0-0-0-0-0-0-0-0-0-|
----------------------------------|----------------------------------|
----------------------------------|----------------------------------|



--0--------0--------------|--------------------------------|
--------4--------4--0--1--|--2-2-2-2-2-2-2-2-2-2-2-2-2--4--|
--------------------------|--------------------------------|
--------------------------|--------------------------------|



--0--2--4--5--7--5--4--5--|--4-----2-----0-----------|
--------------------------|-----5-----4-----2--4--2--|
--------------------------|--------------------------|
--------------------------|--------------------------|



--------0--2--4--5--7--9--|--7--9--11--9--12--12--14--14--|
--2--4--------------------|-------------------------------|
--------------------------|-------------------------------|
--------------------------|-------------------------------|



--16--16--17--17--19--19--17--16--|--14--16--14--12--14--12--11--12--|
----------------------------------|----------------------------------|
----------------------------------|----------------------------------|
----------------------------------|----------------------------------|



--------------------------------|----------------------------------|
--12--13--14-----14--14--14-----|----------------------------------|
--------------------------------|----------------------------------|
--------------------------------|--7-7-7-7-7-7-7-7-7-7-7-7-7-7-7-7-|



--------------------0--------|----------------------------------|
--------------7--------4--0--|--2-2-2-2-2-2-2-2-2-2-2-2-2-2-2-2-|
-----------------------------|----------------------------------|
--7-7-7-7-7-7----------------|----------------------------------|



--------------4-----4--2--0--|----------------------------------|
--2-2-2-2-2-2----------------|----------------------------------|
-----------------------------|--2-2-2-2-2-2-2-2-2-2-2-2-2-2-2-2-|
-----------------------------|----------------------------------|



------------------2--0--------|----------------------------------|
------------------------4--0--|--2-2-2-2-2-2-2-2-2-2-2-2-2-2-2-2-|
--2-2-2-2-2-2-2-2-------------|----------------------------------|
------------------------------|----------------------------------|



--------------5-----4--2--0--|----------------------------------|
--2-2-2-2-2-2----------------|----------------------------------|
-----------------------------|--2-2-2-2-2-2-2-2-2-2-2-2-2-2-2-2-|
-----------------------------|----------------------------------|



--------------2-----0--------|----------------------------------|
-----------------------4--0--|--2-2-2-2-2-2-2-2-2-2-2-2-2-2-2-2-|
--2-2-2-2-2-2----------------|----------------------------------|
-----------------------------|----------------------------------|



----------------------------------|----------------------------------|
--2-2-2-2-2-2-2-2-2-2-2-2-2-2-2-2-|----------------------------------|
----------------------------------|--3-3-3-3-3-3-3-3-3-3-3-3-3-3-3-3-|
----------------------------------|----------------------------------|



----------------------------------|--4----2--4--0--2-----0--|
----------------------------------|-------------------4-----|
--3-3-3-3-3-3-3-3-3-3-3-3-3-3-3-3-|-------------------------|
----------------------------------|-------------------------|



-------------9------|---------------------0--------|
--------------------|---------------------------0--|
--2-----------------|--7-7-7-7-7-7-7-7-7-----------|
--------------------|------------------------------|



---------------------0--------|----------------------------------|
--2-2-2-2-2-2-2-2-2--------0--|----------------------------------|
------------------------------|--3-3-3-3-3-3-3-3-3-3-3-3-3-3-3-3-|
------------------------------|----------------------------------|



----------------------------|----------------------------------|
----------------------------|----------------------------------|
--3-3-3-3-3-3-3-3-2---------|--0-0-0-0-0-0-0-0-0-0-0-0-0-0-0-0-|
-------------------------3--|----------------------------------|



----------------------------------|----------------------------------|
----------------------------------|----------------------------------|
--0-0-0-0-0-0-0-0-0-0-0-0-0-0-0-0-|--3-3-3-3-3-3-3-3-3-3-3-3-3-3-3-3-|
----------------------------------|----------------------------------|



----------------------------------|----------------------------------|
----------------------------------|----------------------------------|
--2-2-2-2-2-2-2-2-2-2-2-2-2-2-2-2-|--3-3-3-3-3-3-3-3-3-3-3-3-3-3-3-3-|
----------------------------------|----------------------------------|



----------------------------------|----------------------------------|
--0-0-0-0-0-0-0-0-0-0-0-0-0-0-0-0-|----------------------------------|
----------------------------------|--2-2-2-2-2-2-2-2-2-2-2-2-2-2-2-2-|
----------------------------------|----------------------------------|



------------------14--12--11------|----------------------------------|
--2-2-2-2-2-2-2-2-------------12--|----------------------------------|
----------------------------------|----------------------------------|
----------------------------------|--8-8-8-8-8-8-8-8-8-8-8-8-8-8-8-8-|



----------------------------------|--------------------------------|
--0-0-0-0-0-0-0-0-0-0-0-0-0-0-0-0-|--------------------------------|
----------------------------------|--2-2-2-2-2-2-2-2-2-2-2-2-------|
----------------------------------|--------------------------3--2--|



---------------14--12--11------|----------------------------------|
--------9--10--------------12--|----------------------------------|
-------------------------------|----------------------------------|
--0----------------------------|--8-8-8-8-8-8-8-8-8-8-8-8-8-8-8-8-|



----------------------------------|------------------------------|
--0-0-0-0-0-0-0-0-0-0-0-0-0-0-0-0-|------------------------------|
----------------------------------|--2-2-2-2-2-2-2-2-2--0--------|
----------------------------------|------------------------3--2--|



--------------------------------|----------------------------------|
--2-2-2-2-2-2-2-2-2-2-2-2-0-----|----------------------------------|
--------------------------------|--3-3-3-3-3-3-3-3-3-3-3-3-3-3-3-3-|
--------------------------------|----------------------------------|



---------------------------------|-------------------|------------------|
--0-0-0-0-0-0-0-0-0-0-0-0-0-0-0--|-------------------|------------------|
---------------------------------|--2----------------|------------------|
---------------------------------|-------------------|------------------|



------------------|------------------|------------------|------------------|
------------------|------------------|------------------|------------------|
------------------|------------------|------------------|------------------|
------------------|------------------|------------------|------------------|



------------------|------------------|------------------|------------------|
------------------|------------------|------------------|------------------|
------------------|------------------|------------------|------------------|
------------------|------------------|------------------|------------------|



------------------|-------------------|-------------------|------------------|
------------------|-------------------|-------------------|------------------|
------------------|-------------------|-------------------|------------------|
------------------|--0----------------|--0----------------|------------------|



------------------|----------------------------------|
------------------|----------------------------------|
------------------|----------------------------------|
------------------|--0--0-0--0--0-0--0--0-0--0--0-0--|



----------------------------------|----------------------------------|
----------------------------------|----------------------------------|
----------------------------------|----------------------------------|
--0--0-0--0--0-0--0--0-0--0--0-0--|--0--0-0--0--0-0--0--0-0--0--0-0--|



----------------------------------|------------------|
----------------------------------|--2-------2-------|
----------------------------------|------------------|
--0--0-0--0--0-0--0--0-0--0--0-0--|-----0-0-----0-0--|



----------------------------------|----------------------------------|
----------------------------------|----------------------------------|
----------------------------------|----------------------------------|
--0-0-0-0-0-0-0-0-0-0-0-0-0-0-0-0-|--0-0-0-0-0-0-0-0-0-0-0-0-0-0-0-0-|



----------------------------------|----------------------------------|
--2-2-2-2-2-2-2-2-2-2-2-2-2-2-2-2-|--2-2-2-2-2-2-2-2-2-2-2-2-2-2-2-2-|
----------------------------------|----------------------------------|
----------------------------------|----------------------------------|



--9-9-9-9-9-9-9-9-9-9-9-9-9-9-9-9-|--9-9-9-9-9-9-9-9-9-9-9-9-9-9-9-9-|
----------------------------------|----------------------------------|
----------------------------------|----------------------------------|
----------------------------------|----------------------------------|



----------------------------------|----------------------------------|
----------------------------------|----------------------------------|
----------------------------------|----------------------------------|
--0-0-0-0-0-0-0-0-0-0-0-0-0-0-0-0-|--0-0-0-0-0-0-0-0-0-0-0-0-0-0-0-0-|



-------------------|-------------------|----------------------------------|
-------------------|-------------------|----------------------------------|
-------------------|-------------------|----------------------------------|
--0----------------|--0----------------|--0--0-0--0--0-0--0--0-0--0--0-0--|



----------------------------------|----------------------------------|
----------------------------------|----------------------------------|
----------------------------------|----------------------------------|
--0--0-0--0--0-0--0--0-0--0--0-0--|--0--0-0--0--0-0--0--0-0--0--0-0--|



------------------|----------------------------------|
------------------|----------------------------------|
------------------|----------------------------------|
--0--0-0--0--0-0--|--0-0-0-0-0-0-0-0-0-0-0-0-0-0-0-0-|



----------------------------------|--------------------------------|
----------------------------------|---------------------9--10--12--|
----------------------------------|----------9--10--12-------------|
--0-0-0-0-0-0-0-0-0-0-0-0-0-0-0-0-|--0-0-0-0-----------------------|



--9--7--9--11--9--11--12--14--|--16---18----19---21--------|------------------|
------------------------------|----------------------------|------------------|
------------------------------|----------------------------|------------------|
------------------------------|----------------------------|------------------|



--21--19--------19-------19-16-14-|--19-16-14-19-16-14-----------------|
----------21-------21-19----------|--------------------12--------------|
----------------------------------|-----------------------14-12--------|
----------------------------------|-----------------------------10-7-5-|



-------------------|-------------------|-------------------|----------||
-------------------|-------------------|-------------------|----------||
-------------------|-------------------|-------------------|----------||
--0----------------|----------0--------|--0----------------|----------||
  development and support by
dmitry ivanov