rock
 
|tablatures   |lyrics   |discussion forums   |more tabs @ XGuitar.com

Helloween tabs

Hocus Pocus guitar tab

HELLOWEEN-HOCUS POCUS
TRANSCRIBED BY: MANOWAR22
GUITAR





INTRO- (guitar 1&2 with drums)
   	Repeat 7x	 	
e-------------------------------------------
b-------------------------------------------
g--------------------------------------------3-4---6-3-8------------------
d--------5^h7-7-7777--5^h7-7-7777---1-2---4-1-6-------------------
a--------0------- 0000"0-------0000----------4-1-6--0-0--------------
e--------------------------------------------------------------------------


        1x
e " ------------------------------------------------------------------------
b " -------------------------------------------------------------------------
g "--------------------------------------------------------------------------
d " 0"5--(7)-------7--9--(0)---------------8------------------------------
a " 0"3--(5)-------5--7--(0)---------------6----------------------------
e - -------------------------------------------------------------------------
	Next comes the crazy juberish, after that it repeats itself the same amount of times,
                  But sings differently but the guitar is always the same.
REPEAT 7x
e-------------------------------------------
b-------------------------------------------
g--------------------------------------------3-4---6-3-8------------------
d--------5^h7-7-7777--5^h7-7-7777---1-2---4-1-6-------------------
a--------0------- 0000"0-------0000----------4-1-6--0-0--------------
e--------------------------------------------------------------------------

e " ------------------------------------------------------------------------
b " -------------------------------------------------------------------------
g "--------------------------------------------------------------------------
d " 0"5--(7)-------7--9--(0)----------------8------------------------------
a " 0"3--(5)-------5--7--(0)----------------6---------------------------
e - -------------------------------------------------------------------------

It just repeats itself over and over and that’s the song. Not quite sure
About the guitar 2
  development and support by
dmitry ivanov